Song name
# A B C D E F G H I J K L M N O P Q R S T U V W X Y Z

Nobuo Uematsu - Mako Reactor tab

-------------------------------------------------------------------------------
			  FINAL FANTASY7   MAKO REACTOR - Nobuo Uematsu
-------------------------------------------------------------------------------
Tabbed by: Omega7
Email: Just message me here.

Tuning: Standard

e|---------------------------------------------------------------------------|
B|---------------------------------------------------------------------------|
G|---------------------------------------------------------------------------|
D|---------------------------------------------------------------------------|
A|---10------------10-10-10---10--10-----------------------------------------|
E|----8-------------8--8--8----8---8-----------------------------------------| X2

e|----------15----15-----------------------15----/18----15-------------------|
B|---------------------------------------------------14----------------------|
G|-12-13-15----12-----------------12-13-15----12-----------------------------|
D|---------------------------------------------------------------------------|
A|---------------------------------------------------------------------------|
E|---------------------------------------------------------------------------|

e|----------15---------------------------------------------------------------|
B|----------------16----13----------------12--12-13-12-13--------------------|
G|-12-13-15----12----12----------10-12-13------------------------------------|
D|---------------------------------------------------------------------------|
A|---------------------------------------------------------------------------|
E|---------------------------------------------------------------------------|

e|---------------------------------------------------------------------------|
B|---------------------------------------------------------------------------|
G|-12--12-10-10--12--12-10-10------------------------------------------------|
D|-10--10--8--8--10--10--8--8------------------------------------------------|
A|---------------------------------------------------------------------------|
E|---------------------------------------------------------------------------|
Play ^ chords if you wish, although I prefer to play them as single notes.

e|---------------------------------------------------------------------------|
B|-11-10-------------11-10-------------11-10-----------11-10-13-11-----------|
G|--------10-12------------10-12--------------10-12--------------------------|
D|---------------------------------------------------------------------------|
A|---------------------------------------------------------------------------|
E|---------------------------------------------------------------------------|

e|---------------------------------------------------------------------------|
B|-14-13-------------14-13------------14-13------------14-13-16-14-----------|
G|--------13-15------------13-15-------------13-15---------------------------|
D|---------------------------------------------------------------------------|
A|---------------------------------------------------------------------------|
E|---------------------------------------------------------------------------|

Didn't see a regular text version of this, so I figured I'd try my hand at it. Here's 
the Mako Reactor Theme from FF VII, enjoy!


************************************

| /   slide up
| \   slide down
| h   hammer-on
| p   pull-off
| ~   vibrato
| +   harmonic
| x   Mute note
| b   Bend
| pb  Pre-bend
| br  Bend release
| pbr Pre-bend release
| brb Bend release bend

************************************
Tap to rate this tab
 
# A B C D E F G H I J K L M N O P Q R S T U V W X Y Z