Song name
# A B C D E F G H I J K L M N O P Q R S T U V W X Y Z

Nobuo Uematsu - To Zanarkand tab

To Zanarkand (Final Fantasy X) Guitar Tab


To Zanarkand
Final Fantasy X
Composed by Nobuo Uematsu                

Guitar
     E  E  E  E  E  E     H.              E  E  E  E  E  E     H.
E||--0-----------0--2--|--3------------|-----------------0--|--2------------|
B||-----------0-----3--|--5------------|--3-----------3--1--|--3------------|
G||--------0-----------|---------------|-----------2--------|---------------|
D||-----2--------0-----|---------------|--4-----4-----------|---------------|
A||--2-----------------|--3------------|--5--5--------3-----|--2------------|
E||--0-----------------|---------------|--------------------|---------------|

  E  E  E  E  E  E     Q    Q.     E     E  E  E  E  E  E     H.
--------------------|-----------------|--------------------|---------------|
--0-----0-----0-----|--0-----------3--|--------------------|--0------------|
--------------------|--0----2---------|--------------------|---------------|
--------0-----2--4--|--2--------------|--4-----------0--4--|---------------|
--3--------3--------|--3--------------|--2-----2--4--------|---------------|
-----3--------------|-----------------|-----2--------------|---------------|

  E  E  E  E  E  E     Q    Q.     E     E  E  E  E  E  E
--0-----0-----0-----|--0-----------3--|--------------------|
--------------------|--1----3---------|--1-----------------|
--------------------|--2--------------|-----------0--2--5--|
-----------------0--|--2--------------|--------3-----------|
--0-----2--0--3-----|--0--------------|-----3--------------|
-----0--------------|-----------------|--1-----------------|

  E  E  E  E  E  E     E  E  E  E  E  E     E  E  E  E  E  E
--------------5--8--|--0-----------0--2--|--3-----------0-----|
--6-----6--8--------|-----------0--------|--------7-----------|
-----5--------------|--0-----------0--2--|--4-----------------|
--------------------|--------2--4--------|-----5-----4--2-----|
--------------------|-----2--------------|--3--------------3--|
--------------------|--0-----------------|--------------------|

  E  E  E  E  E  E     E  E  E  E  E  E     E  E  E  E  E  E
-----------0--------|--------------------|--0-----------0--2--|
--3-----------3-----|--0-----------0--3--|-----------0--------|
-----------0--5-----|--0-----0--2--------|--0-----------0--2--|
--4--------2--7-----|-----0--------------|--------2--4--------|
--5-----5--------3--|--------------------|-----2--------------|
-----5--------------|--3-----------------|--0-----------------|

  E  E  E  E  E  E     E  E  E  E  E  E     E  E  E  E  E  E
--3-----------3-----|--5--------3--5-----|--7-----------------|
--------7-----------|--7-----------7-----|--8-----------------|
--4-----------------|-----------0-----5--|--0-----------------|
-----5-----4--2-----|--0-----0--2--4-----|-----0-----------0--|
--3--------------3--|-----0--------------|-----------0--2-----|
--------------------|--------------------|--------3-----------|

  E  E  E  E  E  E     E  E  E  E  E  E     E  E  E  E  E  E
--0-----------0--2--|--3-----2-----0-----|-----------0--------|
-----------0--------|-----5-----3-----1--|--3-----------3-----|
--0-----------0--2--|--4-----2-----0-----|-----------0--5-----|
--------2--4--------|-----5-----4--2-----|--4--------2--7-----|
-----2--------------|--3--------------3--|--5-----5--------3--|
--0-----------------|--------------------|-----5--------------|

  E  E  E  E  E  E     E  E  E  E  E  E     Q    Q    Q
--------------------|--------------------|-----------------|
--0-----------------|--0-----0-----0-----|--0---------3----|
--0-----------0--2--|--0-----------0-----|-------2---------|
-----0--------------|--2-----2-----------|--4--------------|
-----------0--2-----|--3-----3-----2-----|--5--------------|
--3-----3--------2--|-----3-----3-----3--|-----------------|

  E  E  E  E  E  E     E  E  E  E  E  E     E  E  E  E  E  E
--------------------|--------------------|--0-----------------|
--------------------|-----------------1--|-----------1--1--0--|
--0--------0--------|--------------0-----|--------0--------0--|
--2--2--------4--0--|--2--------2--------|-----2--------2-----|
--3-----3-----5-----|--3-----3-----------|-----------3--------|
--5-----------------|-----3--------------|-----0--3-----------|

  E  E  E  E  E  E     E  E  E  E  E  E     E  E  E  E  E  E
--------------0-----|--0-----------------|--------------3-----|
--------------------|--------3-----1-----|--0-----------------|
--2-----------------|--2-----------------|--0-----------------|
-----------------2--|--------------3-----|--5--------------0--|
--0-----0--2--3-----|-----3--------0--3--|-----5-----0--2-----|
-----0--------------|--1-----1--3--------|--------3-----------|

  E  E  E  E  E  E     E  E  E  E  E  E     H.              E  E  E  E  E  E
--3-----------------|--------------2-----|--2------------|--------------0-----|
--5-----------------|--0-----------------|--2------------|--------------------|
--4-----------0--2--|--------------------|--2------------|--2-----------------|
--------2--4--------|--------------0--2--|--4------------|--2-----------------|
-----2--------------|--2-----2--4--------|---------------|--0-----0--2--3--0--|
--0-----------------|-----2--------------|---------------|-----0--------------|

  Q    Q    E  E     E  E  E  E  E  E     E  E  E  E  E  E
--0---------------|--------------2-----|--2-----0-----------|
-------4----------|--------------3-----|--0-----0-----3-----|
--4---------------|--4-----------------|--2-----0-----4-----|
--4---------------|--4-----------4-----|-----0--------4--0--|
--2---------2--0--|--2-----2--4--5-----|-----------0--2-----|
------------------|-----2-----------2--|--3-----3-----------|

  E  E  E  E  E  E     E  E  E  E  E  E     Q    Q    Q       H        Q
--------------5-----|--5-----------------|--4--------------|-----------2----|
--2-----------0-----|--2--------------0--|--5----5---------|--0--------3----|
--2-----------6-----|--2-----------------|--6---------6----|--0--------4----|
--2-----------------|--------4--6--7-----|--6----6---------|-----------5----|
--0-----0--2--4--7--|-----4--------------|--4--------------|----------------|
-----0--------------|--2-----------------|------------4----|--3-------------|

  Q.     E  Q       E  E  E  E  E  E     H.
-----------------|--------------------|--2------------||
-----------------|--0-----------0--4--|---------------||
--2---------2----|--------------------|---------------||
--2------4--2----|--4-----1--4--------|---------------||
-----------------|--2--2--------------|---------------||
--2---------0----|--------------------|---------------||

Duration Legend
---------------
W - whole
H - half
Q - quarter
E - 8th
S - 16th
T - 32nd
X - 64th
. - note dotted
|-n-|  - n-tuplets


Tap to rate this tab
# A B C D E F G H I J K L M N O P Q R S T U V W X Y Z