Song name
# A B C D E F G H I J K L M N O P Q R S T U V W X Y Z

Nobuo Uematsu - The Sight Of Spira tab

-------------------------------------------------------------------------------
                             The Sight Of Spira - Nobuo Uematsu
-------------------------------------------------------------------------------
Tabbed by: Stamen47

Tuning: Standard
Bpm: 112

Guitar
     Q    E  E  E  E  E  E     E  E  E  E  E  E  Q
E||-------5--------3--------|--------5-----------3----|
B||-------6--------5--------|--------6-----------5----|
G||-------7--------3--------|-----5-----5--------3----|
D||----------7--------5--3--|--L--------------5-------|
A||--5----------3-----------|--------------3----------|
E||-------------------------|-------------------------|

  E  E  E  Q    E  E  E     E  E  E  Q    E  E  E     Q    E  E  E  E  E  E
--------5-------0--------|-------------------------|-------5--------3--------|
--------3-------1-----3--|--L--------3-------------|-------6--------5--------|
-----2-------------2-----|--------4----------4--5--|--7-------------3--------|
-------------------------|-----3----------5--------|----------7--------5--3--|
--1--------0-------------|-------------------------|--5----------3-----------|
----------------------3--|--L----------------------|-------------------------|

  E  E  E  E  E  E  E  E     E  E  E  E  E  E  E  E     W
--------5--5--------1--3--|--1-----------------0-----|-------------------|
--------6-----------3-----|--------------1--3-----3--|--L----------------|
-----5-----5--------2-----|--------2--3-----------0--|--L----------------|
--L--------------3--------|-----3--------------------|-------------------|
--------------1-----------|-----------------------0--|--L----------------|
--------------------------|--3-----------------------|-------------------|

  H        E  E  Q       E  E  E  E  E  E  E  E     E  E  E  E  E  E  Q
--------------3--3----|--------------------------|--5-----6--5-------------|
--------------1-------|--3-----5--6--5-----6--8--|--------------8----------|
--------------0--2----|--------------------------|--------5--------0-------|
----------------------|-----3--7--------5--8-----|-----7--------------8----|
--------------0-------|--5--------------------8--|-------------------------|
----------------------|--------------8-----------|--------------8----------|

  E  E  E  E  E  E  E  E     E  E  E  E  E  E  E  E
--5-----------0-----------|--1-----0-----------------|
--------8--6--------------|-----------3--1-----------|
--------------------0-----|--------2--------0--------|
--------7--------------0--|-----3--------------2-----|
-----8-----0-----7--------|-----------------------3--|
--6-----------------------|--------------------------|

  E  E  E  E  E  E  E  E     E  E  E  E  E  E  Q       E  E  E  E  E  E  E  E
--------------------------|--5-----6--5-------------|--5-----------0-----------|
--3-----5--6--5-----6--8--|--------------8----------|--------8--6--------1-----|
--------------------------|--------5--------0-------|--------------------0-----|
-----3--7--------5--8-----|-----7--------------8----|--------7--------2--------|
--5--------------------8--|-------------------------|-----8-----0--------------|
--------------8-----------|--------------8----------|--6--------------------3--|

  E  E  E  Q    E  E  E     E  E  E  E  E  E  Q       E  E  E  Q.     Q
-------------------------|--5-----------0----------|-----------------------|
--1--3--3--3-------------|--------8--6--------1----|-----3--3--3-----------|
--------4----------------|--------------------0----|--5--------0------2----|
-----3----------5--------|--------7--------2-------|--3--------0-----------|
-------------------7-----|-----8-----0-------------|-----------------------|
----------------------8--|--6----------------------|--3--------6-----------|

  E  E  E  E  E  E  E  E     E  E  E  E  E  E  Q       E  E  E  E  E  E  E  E
-----------------------0--|--5-----6--5--3----------|--5-----------0-----------|
--------5--6--5-----6--8--|--6-----8--6--5----------|--------8--6--------------|
--7-----5--7--5-----7-----|--------5-----------3----|--------------------0-----|
--------7--------5--8-----|-----7-----------5-------|--------7--------------0--|
--5--8-----------------8--|--------------3----------|-----8-----0-----7--------|
--------------8-----------|-------------------------|--6-----------------------|

  E  E  E  E  E  E  S S E     E  E  E  E  E  E  E  E
--1-----0------------------|-----------------------0--|
-----------3--1------------|--------5--6--5-----6--8--|
--------2--------0---------|--7-----5--7--5-----7-----|
-----3--------------2-0----|--------7--------5--8-----|
------------------------3--|--5--8-----------------8--|
---------------------------|--------------8-----------|

  E  E  E   E  E  E  Q       E  E  E  E  E  E  E  E     E  E  E  Q    E  E  E
--5-----6---8--3----------|--5-----------0-----------|-------------------------|
--6-----8--10--5----------|--------8--6--------1-----|--1--3--3--3-------------|
--------5------------3----|--------------------0-----|--2--4--4----------------|
-----7------------5-------|--------7--------2--------|-----3----------5--------|
---------------3----------|-----8-----0--------------|-------------------7-----|
--------------------------|--6--------------------3--|----------------------8--|

  Q    E  E  Q    Q       E  E  E  Q    E  E  E     H        Q    E  E
--5--------------------|-------------------------|----------------------|
-------8--6--5---------|-----3--3--3----6--3-----|--3--------5----6--8--|
------------------5----|--5-----4-------------5--|--3--------5----------|
--7----------5---------|-----3-------------------|--3--------5----------|
--8----------7---------|-------------------------|--5--------7----------|
--6----------5---------|--3----------------------|----------------------|

  Q    Q    H            Q    E  E  E  E  E  E     Q    Q    Q    E  E
--5----8-------------|--------------------------|--5----8------------0--|
------------8--------|--10----8--6--3--6--6--8--|------------8----6-----|
--5---------0--------|---7----------3-----5-----|--5---------0----------|
--7------------------|---7----------3-----5-----|--7--------------------|
--8---------7--------|---8----------5-----7-----|--8---------7----------|
------------8--------|--------------------------|------------8----------|

  E  E  Q    Q    E  E     Q    Q    H            Q    E  E  E  E  E  E
------------------------|--5----8-------------|-----------------1-----3--|
--3---------------6--8--|------------8--------|--10----8--6--3-----6-----|
--------3---------0-----|--5---------0--------|---7----------------------|
-------------3----------|--7------------------|---7-------------3-----5--|
-----5-------5----------|--8---------7--------|---8----------1-----3-----|
--6---------------8-----|------------8--------|--------------------------|

  Q    Q     E   E   Q        E  E  E  Q    Q    E     Q     Q    Q    Q
--5----8----12-------8----|--10---------------------|-------10----8----6----|
--------------------------|-----------------6-------|--6--------------------|
--5-----------------------|------------7---------7--|--7----10----9----7----|
--7-----------------10----|---------8---------------|--8--------------------|
--8-------------10--------|------8------------------|--8--------------------|
-------------8------------|---6---------------------|-----------------------|

  E  E  E  Q    Q    E     Q    Q    Q    Q       E  E  E  Q    Q    E
--5---------------------|-------8----5----0----|-----1--1---------------|
------------------------|----------------------|--3--------3----6----8--|
--5--------5----7----9--|--9----9----5----0----|--------2---------------|
--------5---------------|--7-------------------|--3--3------------------|
-----7------------------|----------------------|--1---------------------|
--5---------------------|--8-------------------|------------------------|

   Q     Q    Q    Q       E  E  E  Q    Q    E     Q    Q     Q    Q
------------------------|--3--5-----0------------|-------5----12----8----|
--10----10----8----6----|--------1---------------|--5--------------------|
--10----10----9----7----|--------0-------5-------|--5--------------------|
---8--------------------|-----2---------------7--|--7--------------------|
------------------------|--0---------------------|--0--------------------|
------------------------|------------------------|-----------------------|

   W                    H.           Q       E  E  E  E  E  E  E  E
--10----------------|--10-----------------|-----------------------0--|
--10----------------|---8-----------------|--------5--6--5-----6--8--|
--10----------------|---9-----------------|--7-----5--7--5-----7-----|
---8----------------|---7------------7----|--------7--------5--8-----|
---8----------------|---7-----------------|--5--8-----------------8--|
--------------------|---------------------|--------------8-----------|

  E  E  E  E  E  E  Q       E  E  E  E  E  E  E  E
--5-----6--5--3----------|--5-----------0-----------|
--6-----8--6--5----------|--------8--6--------------|
--------5-----------3----|--------------------0-----|
-----7-----------5-------|--------7--------------0--|
--------------3----------|-----8-----0-----7--------|
-------------------------|--6-----------------------|

  E  E  E  E  E  E  S S E     E  E  E  E  E  E  E  E
--1-----0------------------|-----------------------0--|
-----------3--1------------|--------5--6--5-----6--8--|
--------2--------0---------|--7-----5--7--5-----7-----|
-----3--------------2-0----|--------7--------5--8-----|
------------------------3--|--5--8-----------------8--|
---------------------------|--------------8-----------|

  E  E  E   E  E  E  Q       E  E  E  E  E  E  E  E     E  E  E  Q    E  E  E
--5-----6---8--3----------|--5-----------0-----------|-------------------------|
--6-----8--10--5----------|--------8--6--------1-----|--1--3--3--3-------------|
--------5------------3----|--------------------0-----|--2--4--4----------------|
-----7------------5-------|--------7--------2--------|-----3----------5--------|
---------------3----------|-----8-----0--------------|-------------------7-----|
--------------------------|--6--------------------3--|----------------------8--|

  Q    E  E  Q    Q       E  E  E  Q    E  E  E     E  E  E  E  E   E  E  E
--5--------------------|----------------3--------|-----0--7--------12--------|
-------8--6--5---------|-----3--3--3-------3-----|---------------------------|
------------------5----|--5-----4-------------5--|--6-----------7------------|
--7----------5---------|-----3-------------------|--4------------------------|
--8----------7---------|-------------------------|--5--------7---------------|
--6----------5---------|--3----------------------|--0------------------0-----|

  W                   W
-------------------|--------------------||
-------------------|--------------------||
--0----------------|--2----------------*||
--0----------------|-------------------*||
--1----------------|--------------------||
-------------------|--------------------||

Duration Legend
---------------
W - whole
H - half
Q - quarter
E - 8th
S - 16th
T - 32nd
X - 64th
. - note dotted
|-n-|  - n-tuplets
Tap to rate this tab
# A B C D E F G H I J K L M N O P Q R S T U V W X Y Z