Song name
# A B C D E F G H I J K L M N O P Q R S T U V W X Y Z

Nobuo Uematsu - Wutai Theme tab

This is in standard tuning. It's the first tab ive done for this site (A friend
of mine asked me to tab it up for them so i thought I'd put it on here as well)
I think its correct feel free to change it and mail me if you find any mistakes.

Intro. Let last note ring.

E----------|---------|---|
B----------|---------|---|
G----------|-2-5-4-2-|---|
D--2-5-4-2-|---------|---|
A----------|---------|-0-|
E----------|---------|---|

First part.
E----------|-------------|---------|------------------|------|-------|--------|
B-10-------|-10-13-12-10-|-10------|-10-13-12-10------|------|-10-13-|13-12-10|
G----9-12--|-------------|----9-12-|-------------9-12-|-9-12-|-------|--------|
D----------|-------------|---------|------------------|------|-------|--------|
A----------|-------------|---------|------------------|------|-------|--------|
E----------|-------------|---------|------------------|------|-------|--------|

Second part.
E----------------|----------------|----------------|----------------|
B-12h13h14h15-12-|-12h13h14h15----|-12h13h14h15----|----------------|
G----------------|-------------14-|-------------12-|-------12-------|
D----------------|----------------|----------------|-13/14----14-12-|
A----------------|----------------|----------------|----------------|
E----------------|----------------|----------------|----------------|

E----------------|----------------|----------------|----------------|
B-12h13h14h15-12-|-13h13h14h15----|-12h13h14h15----|-13/15-13-12----|
G----------------|-------------14-|-------------12-|-------------14-|
D----------------|----------------|----------------|----------------|
A----------------|----------------|----------------|----------------|
E----------------|----------------|----------------|----------------|

Well thats it. On the downloaded version of the song i have it plays it twice
so just repeat the whole thing all over again. Have fun ^_^
Tap to rate this tab
 
# A B C D E F G H I J K L M N O P Q R S T U V W X Y Z