Song name
# A B C D E F G H I J K L M N O P Q R S T U V W X Y Z

Nobuo Uematsu - Cids Theme tab

Nobou Uematsu - Cid's Theme (From Final Fantasy 7)

Standard tuning for this one. Second Final Fantasy tab I've done for this site
so far my first being the Wutai theme. This should be correct let me know if you
see any mistakes.

First part.
E---|-------|-----------|---|-------|-----------|-------|-----|-----|---1---|
B---|-------|-----------|---|-------|---0-1-----|-------|-0-1-|-3-4-|-3---4-|
G---|-------|---2-3-0---|---|-2-0-2-|-2-----2---|-2-0-2-|-----|-----|-------|
D---|-5-3-5-|-5-------0-|-0-|-------|---------2-|-------|-----|-----|-------|
A-3-|-------|-----------|---|-------|-----------|-------|-----|-----|-------|
E---|-------|-----------|---|-------|-----------|-------|-----|-----|-------|

E-----|-------|-------|
B-1---|-3-----|-------|
G---0-|---3---|---1-0-|
D-----|-----3-|-3-----|
A-----|-------|-------|
E-----|-------|-------|

Second part.
E------------|-------------11-|-10-8-10-11---|------------------|------|
B-8-6-8-9-11-|-8-6-8-9-8------|------------9-|-7-9-10-7-9-12-12-|-9-12-|
G------------|-----------8----|--------------|------------------|------|
D------------|----------------|--------------|------------------|------|
A------------|----------------|--------------|------------------|------|
E------------|----------------|--------------|------------------|------|

E--------------11-|-10-8-10-11-|-15-11-8-|-10-11-11-|
B-9-7-9-10-9------|------------|---------|----------|
G------------8----|------------|---------|----------|
D-----------------|------------|---------|----------|
A-----------------|------------|---------|----------|
E-----------------|------------|---------|----------|

Well thats it. Now to start on the next one...
Tap to rate this tab
# A B C D E F G H I J K L M N O P Q R S T U V W X Y Z