Song name
# A B C D E F G H I J K L M N O P Q R S T U V W X Y Z

Nobuo Uematsu - The Last Story Theme tab

 The Last Story
My First Tab, guys!!
|------------------------------|
|---------------------7/8------|
|7-8-10---8-7------------------|
|-------------8-8/10-----------|
|------------------------------|
|------------------------------|

|------------------------------|
|------------------------------|
|7-8-10---8-7----------0-0-----|
|-------------8-8/10-----------|
|------------------------------|
|------------------------------|

|------------------------------|
|---------------------7/8------|
|7-8-10---8-7------------------|
|-------------8-8/10-----------|
|------------------------------|
|------------------------------|

|----------------------------------|
|----------------------------------|
|11-9-11---11/13---11-------6-6-8-8|
|----------------------------------|
|----------------------------------|
|----------------------------------|

|----------------------------------|
|----------------------------------|
|11-9-11---11/13---11-------6-6-8-8|
|----------------------------------|
|----------------------------------|
|----------------------------------|
Tap to rate this tab
# A B C D E F G H I J K L M N O P Q R S T U V W X Y Z