Song name
# A B C D E F G H I J K L M N O P Q R S T U V W X Y Z

Nobuo Uematsu - On The Other Side Of The Mountain tab

On the Other Side of the Mountain
Composed by Nobuo Uematsu
From: Final Fantasy VII
Tab by Grayson Cron

e--4-----2-----0--------------0--------|
B-----0-----0-----0--4-----4-----4-----|
G-----------------------4-----------4--|
D--2-----1-----------------------------|
A--------------4-----2-----------------|
E--------------------------------------| x2

e-----------------------------0--------|
B--2-----4-----5-----4-----4-----4-----|
G-----2-----4-----6-----4-----------4--|
D--------------------------------------|
A--0-----2-----4-----2-----------------|
E--------------------------------------| x2

e--4-----2-----0--------------0--------|
B-----0-----0-----0--4-----4-----4-----|
G-----------------------4-----------4--|
D--2-----1-----------------------------|
A--------------4-----2-----------------|
E--------------------------------------| x2

e--4---2---7---0-------0-2-4-------2-------0---------|
B----0---0---0---2---2-------0---0---0---0---0---0---|
G------------------2-----------2-------2-------1-----|
D--2---1---6---------------------------------------2-|
A--------------0-------0-2-2-------2-----------------|
E------------------------------------------0---------|

e--3-----5-----7-----2--------------|
B-----0-----0-----0-----0-----0-----|
G--------------------------2--------|
D--2-----4-----6-----1--------------|
A--------------------------------2--|
E-----------------------------------| x2

e--3---5---7---10---8---7---5---3---5---6---7------------|
B----0---0---0----0---0---0---0---0---0---0----0-1-0---0-|
G----------------------------------------------------2---|
D--2---4---6----7---7---5---4----------------------------|
A-------------------------------3---5---7---6------------|
E--------------------------------------------------------|

e--3-----5-----7-----2--------------|
B-----0-----0-----0-----0-----0-----|
G--------------------------2--------|
D--2-----4-----6-----1--------------|
A--------------------------------2--|
E-----------------------------------| x2

e--3-----5-----7-----8-----7-----3-----------2-----------0-------------|
B-----0-----0-----0-----5-----5-----0-----0-----0-----0-----0-----0----|
G--------------------------------------2-----------2-----------1-------|
D--2-----4-----6-----7-----6-----------------------------------------2-|
A--------------------------------3-----------2-------------------------|
E--------------------------------------------------------0-------------|
Tap to rate this tab
 
# A B C D E F G H I J K L M N O P Q R S T U V W X Y Z