Song name
# A B C D E F G H I J K L M N O P Q R S T U V W X Y Z

Nobuo Uematsu - Matoyas Cave tab

Help us improve GuitareTab! Take a short survey!
-------------------------------------------------------------------------------
			     SONG NAME - Band Name
-------------------------------------------------------------------------------
Tabbed by: Sword-Saviour
Email:archaiccrown327@tampabay.rr.com

Tuning:Standard (EADGBE)

Um, I've Only Got the Electric Guitar's Part, 'cuz my version of the song is all
messed up at the very beginning, Sorry!

e|-------12----13-12-------10----------12-15----17-15-13-12-13-12----12-13---|
B|-10-13----10-------10-13----13-12-13-------13-------------------15---------|
G|---------------------------------------------------------------------------|
D|---------------------------------------------------------------------------|
A|---------------------------------------------------------------------------|
E|---------------------------------------------------------------------------|

e|-15-------------------13-15-17--------------------15-17-19----17-19--------|
B|----12-15-13p12h13-------------17-----17h18p17p15----------20--------------|
G|------------------h14--------------18--------------------------------------|
D|---------------------------------------------------------------------------|
A|---------------------------------------------------------------------------|
E|---------------------------------------------------------------------------|

e|-22p20p19h20p17-15-13-12-15----13-12----------------------------12-10----10|
B|----------------------------15-------13-12----13-13p12p10h12-13-------13---|
G|-------------------------------------------12------------------------------|
D|---------------------------------------------------------------------------|
A|---------------------------------------------------------------------------|
E|---------------------------------------------------------------------------|

e|-12-15p13p12h13-15-12p10p8p7h8p7-------------------------------------------|
B|---------------------------------------------------------------------------|
G|---------------------------------------------------------------------------|
D|---------------------------------------------------------------------------|
A|---------------------------------------------------------------------------|
E|---------------------------------------------------------------------------|
| /  slide up
| \  slide down
| h  hammer-on
| p  pull-off
| ~  vibrato
| +  harmonic
| x  Mute note
===============================================================================
Related for Matoyas Cave tab