Guitaretab - guitar tabs
Song name
# A B C D E F G H I J K L M N O P Q R S T U V W X Y Z

Nobuo Uematsu - Mystic Forest tab

-----------------------------------------------------------------------------
			     Mystic Forest (FF6) - Nobou Uematsu
-----------------------------------------------------------------------------
Tabbed by: Jesse Johnson
Email: zigancirrus@gmail.com

Tuning: Standerd

Intro:
E----------------------------------------------------------------------------------------------|
B----------------------------------------------------------------------------------------------|
G----------------------------------------------------------------------------------------------|
D------------------------------------------------------------------------------------  Repeat--| (x2)
A----------------------------------------------------------------------------------------------|
E--------0--7--0--0--7--0--8--0--0--8--0--9--0--0--9--0--8--0--0--8----------------------------|

On the last repeat let the last note ring ^

Solo/Chorus:
E-------------------------------------------------------------------------------------|
B-------------------------------------------------------------------------------------|
G-------------------------------------------------------------------------------------|
D-----------17-16-14------------------------------------------------------------------|
A-------------------------17-15-14------------10--12-12h14----------------------------|
E-------------------------------------------------------------------------------------|
[ Tab from: http://www.guitaretab.com/n/nobuo-uematsu/64928.html ]
E-----------------------------------------------------------------------------------|
B-----------------------------------------------------------------------------------|
G-----------------------------------------------------------------------------------|
D-----------17-16-14----------------------------------------------------------------|
A-------------------------17-15-14------------10--12--14--15--12------12--10--8--7--|
E-----------------------------------------------------------------------------------|

E------------------------------------|
B------------------------------------|
G--------14--16--17--19--17--16--14--| x2
D------------------------------------|
A------------------------------------|
E------------------------------------|
Quickly switch to next tab >>
E------------------------------------------------|
B------------------------------------------------|
G--------12--14--16--17-----12---------14----12--|
D----------------------------------------10------|
A------------------------------------------------|
E------------------------------------------------|

E------------------------------------|
B------------------------------------|
G--------12--14--15--17--15--14--12--| x2
D------------------------------------|
A------------------------------------|
E------------------------------------|
Quickly switch to next tab >>
E----------------------------------------------------------------------------------------|
B----------------------------------------17--17--20--19--19--20--17-------20-19--15--12--|
G-------12--14--15--17--19--20-----------------------------------------------------------|
D----------------------------------------------------------------------------------------|
A----------------------------------------------------------------------------------------|
E----------------------------------------------------------------------------------------|
Related for Mystic Forest tab
Advertisement will be closed in 10 seconds