Song name
# A B C D E F G H I J K L M N O P Q R S T U V W X Y Z

Nobuo Uematsu - Supira No Jokei Aka Sight Of Spira tab

Final Fantasy X – Supira No Jokei aka Sight of Spira
By Nobuo Uematsu

-It was pretty hard for me to distinguish the lead guitar from the rhythm one in
this piece. I’m sure that I’ve mixed the two guitars at some point or the other,
but it still sounds good. Now, I’m just too lazy to edit this tab for now or to
tab out the rhythm guitar (guitar 2). But if I DO tab it out, then good for me! ^^

-Btw, I organized this tab into many parts so as not to get confusing.

P.S. I can’t seem to get silver_wings_dx’s tab for this one... hmmm...

Intro: 00:00 – 00:08.
======

Guitar 1
e|---------------------------------------------------------------------|
B|---------------------------------------------------------------------|
G|---------------------------------------------5h7---------------------|
D|---------------------------------------------------------------------|
A|---------------------------------------------------------------------|
E|---------------------------------------------------------------------|

Guitar 2
e|----5-----3--------5-----------------5-------------------------------|
B|----5-----3--------3---------8-------5----5---------------8----------|
G|-----------------5---5-------7------------7----------5-7----7-5------|
D|------7-----5-3----------3/5-------7--------7----3/5-----------------|
A|-5------3--------------3---------------------------------------------|
E|---------------------------------6-----5-----1/3---------------------|

1st Part: 00:08 – 00:18.
=========

Guitar 1

e|---------------8---5-5----5-------------------5-----------------------|
B|-------5-8-6/8---6------8---8-6-----------3-5---------------------8---|
G|----7-------------------------5---2-3-3/5-------(tap,tap,tap)---------|
D|--------------------------------3-----------------------------x-----7-|
A|--------------------------------------------------------------x-------|
E|--------------------------------------------------------------x-------|

Guitar 2

e|-----5-----3---------------------------------------------------------|
B|-----5-----3---------------------------------------------------------|
G|---------------------------------------------------------------------|
D|-------7-----5-3~~---------------------------------------------------|
A|-3-5-----3-----------------------------------------------------------|
E|---------------------------------------------------------------------|

• Sorry about Guitar 2... I’ll finish it when I have the time to...
From here on out, its purely Guitar 1.

2nd Part: 00:19 – 00:39.
=========

e|-----------------5~~6-5------5---------------------------------------|
B|-3~~5-6-3/5~~6-8--------8-------8-6-5----4/6~~5-3---8----------------|
G|--------------------------------------------------5---7--------------|
D|---------------------------------------------------------------------|
A|---------------------------------------------------------------------|
E|---------------------------------------------------------------------|

e|------------------5--6-5--------5~~----------------------------------|
B|-3---3/5-6-5~~6-8--------6/8-------8-6-5~~--------------8------------|
G|---5--------------------------------------5~~3/5-7-7------7----------|
D|------------------------------------------------------------10-------|
A|---------------------------------------------------------------------|
E|---------------------------------------------------------------------|

e|-17~~15--------------------------------------------------------------|
B|--------18-17~~------------------------------------------------------|
G|---------------17~~15/17-19-19~~-------------------------------------|
D|----------------------------------7----------------------------------|
A|---------------------------------------------------------------------|
E|---------------------------------------------------------------------|

3rd Part: 00:40 – 01:25.
=========

e|-----------------------------------5---------------------------------|
B|------------------8-10~~11-10-8-------8-6-5----6--5-3---8------------|
G|-5/7~~9--10-9~~10-9-10~~10-10-9-----------------------5---9-7--------|
D|------10-12-10~12---------------------------------------------10-----|
A|---------------------------------------------------------------------|
E|---------------------------------------------------------------------|

e|-----------------------------------------5---------------------------|
B|----------------8-10~~11-13-6/8-----8-------8-6-5-------------8------|
G|7~~9--10-9---10-9-10~~10-10---------7--------------5-3/5-7-7~~--7----|
D|7~~10-12-10--12-----------------3/5----------------7-5/7-7-7~~----10-|
A|---------------------------------------------------------------------|
E|---------------------------------------------------------------------|

e|-17~~15-------------------------------------------------5--8---------|
B|--------18-17~~13~~11/13-15-15~~--8--------------5~~6-8-------8------|
G|------------------------------------7----5/7-------------------------|
D|--------------------------------------10-----------------------------|
A|---------------------------------------------------------------------|
E|---------------------------------------------------------------------|

e|-5--------------5--8---------------------5--8------5-----------------|
B|----8-6---6-6-8-------8--6-5-------6-8—-------8---6---8-6---6-6-8----|
G|--------7--------------------7~~-------7---------7--------7-7-7------|
D|---------------------------------------------------------------------|
A|---------------------------------------------------------------------|
E|---------------------------------------------------------------------|

e|-5--8--12--8—10~-----10--8--6—5~~~-----------------------------------|
B|---------------------------------------------------------------------|
G|---------------------------------------------------------------------|
D|---------------------------------------------------------------------|
A|---------------------------------------------------------------------|
E|---------------------------------------------------------------------|

4th Part: 01:26 – 01:39.
=========

e|----8--5-------------------3/5--5--3-------5--------------8--12--8-10-|
B|-8--------5----6-6----6--8------3--5--6--8------------5-8-------------|
G|-------------7-----7------------------7------5-7/9--5-----------------|
D|---------------------------------------------7-5/7—-7-----------------|
A|----------------------------------------------------------------------|
E|----------------------------------------------------------------------|

Last Part: 01:40 – 02:10.
==========

e|------------------------------------------------3h5--3---------------|
B|----5--------------------------8-10--11-10-8-----------6-5--6—-5-3---|
G|-------------5/7--9—-10-9---10-9-10--10-10-9-----------------------5-|
D|----------7-------10-12-10--12---------------------------------------|
A|---------------------------------------------------------------------|
E|---------------------------------------------------------------------|

e|----------------------------------------------5--3-------------------|
B|-8--------------------8-10~-11-13-6/8-----8---6--5-6-5---------------|
G|------7--9--10-9---10-9-10~-10-10-----3/5-7--------7-5--5—3/5—7-7----|
D|---7-----10-12-10--12-----------------------------------7-5/7-7-7----|
A|---------------------------------------------------------------------|
E|---------------------------------------------------------------------|

e|---------17--15------------------------------------------------------|
B|-8-------15-----18-17--13—11/13-15-15--8-----------------------------|
G|---7---------------16-----12/14-14-14----7---------------------------|
D|----10-------------------------------------10------------------------|
A|---------------------------------------------------------------------|
E|---------------------------------------------------------------------|

e|---------12--------19-------5~~--------------------------------------|
B|---------------------------------(tap, tap)--------------------------|
G|-3/5-7/9-------9-----------------------------------------------------|
D|-3/5--------7/9-7---------------------------x------------------------|
A|--------------------------------------------x------------------------|
E|--------------------------------------------x------------------------|

That’s it!

E-mail me at ifyhard2@yahoo.com for comments, suggestions, or whatever, really! = )

-Ifyhard
Tap to rate this tab
# A B C D E F G H I J K L M N O P Q R S T U V W X Y Z