Song name
# A B C D E F G H I J K L M N O P Q R S T U V W X Y Z

Nobuo Uematsu - Cosmo Canyon tab

Here’s one of the greatest songs in the world (After a lot of course^^)! I
present you Cosmo Canyon from Final Fantasy 7, originally composed by the
brilliant Nobuo Uematsu.
Here’s (I think…) a nice tab of it, Enjoy! Any comments about it, just join me:
chewbacca009@wanadoo.fr

First there's an intro on the bass.(which i'm working on^^)

0:27 
 Em                            G
e|-0-—0--0—----|-0-3-----3-5-3-|-7—-7—-7-5-3-5-|--7------|
B|-----------3-|---------------|---------------|---------|
G|-------------|---------------|---------------|---------|
D|-------------|---------------|---------------|---------|
A|-------------|---------------|---------------|---------|
E|-------------|---------------|---------------|---------|


  Am                          Em
e|-5---3-5-7---|-3-0-0-------|-3-0---0-----|---------|
B|-------------|----------3--|-----3-------|---------|
G|-------------|-------------|-------------|---------|
D|-------------|-------------|-------------|---------|
A|-------------|-------------|-------------|---------|
E|-------------|-------------|-------------|---------|
                                (Hold the note)

  Em
e|---------|-----------|-0-—0--0—----|-0-3-----3-5-3-|
B|---------|-----0—-3--|-----------3-|---------------|
G|---------|-----------|-------------|---------------|
D|---------|-----------|-------------|---------------|
A|---------|-----------|-------------|---------------|
E|---------|-----------|-------------|---------------|


  G                         Am
e|-7—-7—-7-5-3-5-|--7------|-5---3-5-7---|-3-0-0-------|
B|---------------|---------|-------------|----------3--|
G|---------------|---------|-------------|-------------|
D|---------------|---------|-------------|-------------|
A|---------------|---------|-------------|-------------|
E|---------------|---------|-------------|-------------|


  Em
e|-3-0---0-----|---------|---------|-----7--10--|
B|-----3-------|---------|---------|------—-----|
G|-------------|---------|---------|------------|
D|-------------|---------|---------|------------|
A|-------------|---------|---------|------------|
E|-------------|---------|---------|------------|
    (Hold the note)

  Em
e|-12—-12—-12-14—-12-|-10------7-10-|-12—-12—-15-14—-12-|-10--------|
B|---------12--------|--------------|---------12--------|-----------|
G|-------------------|--------------|-------------------|-----------|
D|-------------------|--------------|-------------------|-----------|
A|-------------------|--------------|-------------------|-----------|
E|-------------------|--------------|-------------------|-----------|


  Am                               G
e|----------------|-8------8-10---|-7--------|--------7—-10--|
B|-10---8-10-12---|-----12--------|-8--------|---------------|
G|----------------|-9------9-10---|----------|-10—-9—-7------|
D|-10---9-10-12---|-----12--------|----------|---------------|
A|----------------|---------------|----------|---------------|
E|----------------|---------------|----------|---------------|
                               (Hold the note)

  Em
e|-12—12-—12-14-—12-|-10------7-10-|-12—-12-—15-14-—12-|-10--------|
B|--------12--------|--------------|---------12--------|-----------|
G|------------------|--------------|-------------------|-----------|
D|------------------|--------------|-------------------|-----------|
A|------------------|--------------|-------------------|-----------|
E|------------------|--------------|-------------------|-----------|


  Am               C
e|----------------|-8------8-10---|-12--------|
B|-10---8-10-12---|-----12--------|-12--------|
G|----------------|-9------9-10---|-----------|
D|-10---9-10-12---|-----12--------|-----------|
A|----------------|---------------|-----------|
E|----------------|---------------|-----------|
                                      Hold this last note a long time

                Em
e|-----15-12---|-12--------|   Hold the last note a long time
B|--------12---|-12--------|
G|--------14---|-12--------|
D|-------------|-----------|
A|-------------|-----------|
E|-------------|-----------|

And you repeat all this a second time and you got the song^^

Soon I’m gonna tab this for Bass so... enjoy guitar first^^
Tap to rate this tab
# A B C D E F G H I J K L M N O P Q R S T U V W X Y Z