Song name
# A B C D E F G H I J K L M N O P Q R S T U V W X Y Z

Nobuo Uematsu - Julias tab

     Julia - Original Composition by Nobuo Eumatsu(www.nobuouematsu.com)
           Transcribed and Arranged for guitar by Spencer Nunamaker

Standard Tuning
*=Natural Harmonic

This piece is in 4/4 time, in the key of E major. play it at about 90 bpm, with a very 
feel. This is perhaps the most challenging aspect of the piece, as it was written for 
and the fingerings are quite difficult.


Molto Lirico
        Let Ring
        |- - - - - - -;                                 |- -;
-----|--0-----2-----4----7~-|--4---------------|--2--4--0~------------|2--------------|
--0--|--------4-----5----9--|--5--------4~~h5--|--2--2--0~------2h5---|5--------4~~--0|
-----|-------------------8~-|--------6---------|--------4-2-----------|------4--------|
-----|----------------------|-----6------------|-----2----------------|---4-----------|
-----|-----2----------------|--4---------------|--0-------------------|2--------------|
-----|--0--------0----------|------------------|----------------------|---------------|

   Let Ring                             Quickly! (16th Triplets)
   |- - - - - - -;                        |--;
|--0-----2-----4------7~-|--7-----------------|-------------------------|-------------------|
|--------4-----5------9~-|--4----------------2|--4--5--2----------2-----|-------------------|
|------------------------|-----------4------2-|--2--------2----4-----4--|--------1-------4--|
|------------------------|--------6--------2--|--2--2-------------------|---2----2--4-------|
|-----2------------------|-----6--------------|--0----------------------|---2-------6-------|
|--0--------0------------|--4-----------------|-------------------------|-------------------|


|----------------|-------------------------|----------------|-------------------4-|
|--5----5--------|--2-----0-------------0--|--2----2--------|---------------------|
|-------8--8--6--|--1----------------1-----|--2----4--4--2--|--2-----1------------|
|-------6--------|--1--1-----4----2--------|----------------|--2--4--2----2-4-2-1-|
|--4----4--------|-------------------------|--0-------------|--2-----2--2---------|
|----------------|--4----------------------|----------------|--0------------------|


|---4------4--5----4--|---------------------|--------12~-------4--7--|--2------------------------------|
|---5---7-------------|--7-----5---------5--|--5/----12~----7--------|--5--------4------2----4---------|
|---5-----------------|--------4------6-----|--5/----11~-------------|--------4------------------------|
|---0------0----------|-----6---------------|--4/--------------------|-----4------------2----4---------|
|-----0---------------|--4------------------|--0---------------------|--2------------------------------|
|---------------------|---------------------|------------------------|---------------------------------|


|---0-------------|------------------4--7---|--11~---9--9----|--9----7--7----|--7--5---12-----------|
|---0---------0---|--2-------------5--------|--12~-----------|--7------------|--0------9---2--------|
|---1---------1---|--1--------1-------------|----------------|--8------------|--6-------------2--4--|
|---------2-------|--2-----2----------------|----------------|--6------------|--4-------------------|
|------2----------|-----2-------------------|--12*-----------|---------------|----------------------|
|---0-------------|--0----------------------|----------------|---------------|----------------------|


|---------------------------|-------------------------|-----------------0--4--7-------0*------------|
|---------------------------|-------------------------|--------------0----------------0*------------|
|---1--------1--1-----------|-------------------------|-----------1---------------------------------|
|------2--------1--4--2--1--|---4---------2-----------|--------2------------------------------------|
|---2-----2-----2-----------|---4--4------2--2-----0--|-----2---------------------------------------|
|---------------------------|---5-----5---4-----4--2--|--0------------------------------------------|

~thanks for reading my tab!
spencer nunamaker
www.myspace.com/spencenunamaker
Tap to rate this tab
 
# A B C D E F G H I J K L M N O P Q R S T U V W X Y Z