Song name
# A B C D E F G H I J K L M N O P Q R S T U V W X Y Z

Nobuo Uematsu - Suteki Da Ne tab

Hey Everyone,
I'm totally new at playing guitar and this happens to be one of my favourite songs.
I have had trouble accessing a lot of the tabs for this song, so building off one I looked
earlier, I tried to finish the tab and make it longer. It's also for a beginner to play 
much less difficult than the actual version. Still pretty though. Have fun :) If anyone
any questions please feel free to email me at sweet_tomoyo03@hotmail.com

INTRO VERSE:


E ------------------------------------|
B --0-1-0--1-3-5-6-5-3--5-3-1-0--1-0--|
G -2----------------------------------|
D ------------------------------------|
A ------------------------------------|
E ------------------------------------|


E ------------------------------------|
B ------------------------------------|
G -2-0--2-4-5-4-5-7-9-10-9-7--9-7-5-4-|
D ------------------------------------|
A ------------------------------------|
E ------------------------------------|


E ------------------------------------|
B ------------------------------------|
G -0-----2----------------------------|
D ---5-7------------------------------|
A ------------------------------------|
E ------------------------------------|

(REPEAT ABOVE FOR SECOND VERSE)

CHORUS:


E ------------------------------------|
B ------------------------------------|
G -----------5-7-9-12-7--9-7-5-2-5-5-7|
D ------------------------------------|
A ------------------------------------|
E ------------------------------------|


E ------------------------------------|
B ------------------------------------|
G -9-12-7-5-4-2--5-7-9-12-7-9-7-5-2-5-|
D ------------------------------------|
A ------------------------------------|
E ------------------------------------|


E ------------------------------------|
B ----------12------------------------|
G -5-7-9-12---12-14--14-12-10-9---12-9|
D ------------------------------------|
A ------------------------------------|
E ------------------------------------|


E ------------------------------------|
B -------------------------12---------|
G -5-2-5-5--9-7-5-7-9-0--9----12-14---|
D ------------------------------------|
A ------------------------------------|
E ------------------------------------|
Tap to rate this tab
 
# A B C D E F G H I J K L M N O P Q R S T U V W X Y Z