Song name
# A B C D E F G H I J K L M N O P Q R S T U V W X Y Z

Nobuo Uematsu - Wind Scene Chrono Trigger tab

Guitar 1
     H        Q    Q         E  E  E  E  Q    E  E     E  E  E  E  Q    Q
E||----------------0----||---1--0-------------------|------------------------|
B||-----------3---------||---------1-----3-------3--|--1---------------------|
G||---------------------||*-----------2-------------|-----2-----0--2----0----|
D||---------------------||*--0--------L-------------|--------3-----3----2----|
A||---------------------||---------------1-------L--|--0--------L------------|
E||---------------------||--------------------------|------------------------|

              ^
  E  E  E  E  Q    Q       H.           Q       E  E  E  E  Q    E  E
--------------0----1----|---------------0----|--1--0-------------------|
-----------1--1---------|--1-----------------|--------1-----3-------3--|
--------2-----0---------|--0-----------------|-----------2-------------|
--2--3------------------|--3------------L----|--0--------L-------------|
------------------------|--------------------|--------------1-------L--|
--------------3----L----|--------------------|-------------------------|

                                       ^     ^
  E  E  E  E  Q    Q       E  E  E  E  E  E  E  E     H        Q    Q
------------------------|--------------0-----------|----------------0------||
--1---------------------|-----------1--1--3--1--3--|--3--------3-----------||
-----2-----0--2----0----|--------2-----0-----2-----|--2------------------*-||
--------3-----3----2----|--2--3--------------2-----|--5------------------*-||
--0--------L------------|--------------------------|-----------------------||
------------------------|--------------3-----------|-----------------------||

  E  E  E  E  Q.     E     E  E  E  E  Q    Q       E  E  E  E  Q    Q
--1--0------------------|------------------------|--------------0----1----|
--------1-----3------3--|--1---------------------|-----------1------------|
-----------2------------|-----2-----0--2----0----|--------2---------------|
--0--------L------------|--------3-----3----2----|--2--3------------------|
--------------1------L--|--0--------L------------|------------------------|
------------------------|------------------------|------------------------|

  H.           Q       E  E  E  E  Q.     E     E  E  E  E  Q    Q
---------------0----|--1--0------------------|------------------------|
--1-----------------|--------1-----3------3--|--1---------------------|
--------------------|-----------2------------|-----2-----0--2----0----|
--------------------|--0--------L------------|--------3-----3----2----|
--------------------|--------------1------L--|--0--------L------------|
--------------------|------------------------|------------------------|

                             ^
  E  E  E  E  E  E  E  E     H.           E  E     H        Q    Q
--------------0-----------|------------------5--|--5--------3----1----|
-----------1-----3--1--3--|--3------------------|--6--------5----3----|
--------2-----------------|--0------------------|---------------------|
--2--3--------------------|--0------------------|---------------------|
--------------------0--L--|---------------------|---------------------|
--------------3--L--------|---------------------|---------------------|

  H        Q    Q       H.           Q       Q    Q    Q    Q
--0--------1----3----|--------------------|----------------------|
--1--------3----5----|--5-----------------|-----------------1----|
---------------------|--5------------5----|--2---------L----2----|
---------------------|---------------7----|--3----2----3---------|
---------------------|--------------------|----------------------|
---------------------|--------------------|----------------------|

  H        Q    Q       H        Q    Q       Q    Q    Q    Q
---------------------|--0--------1----3----|--0--------------L----|
-----------1----3----|--1--------3----5----|--1-------------------|
--3--------2----3----|---------------------|-------2----0----2----|
--5------------------|---------------------|----------------------|
---------------------|---------------------|----------------------|
---------------------|---------------------|----------------------|

  Q    Q    E  E  E  E     H        Q    Q       H        Q    Q
------------------------|--5--------3----1----|--0--------1----3----|
--1------------------1--|--6--------5----3----|--1--------3----5----|
------------0--2--3-----|---------------------|---------------------|
--1----3----------------|---------------------|---------------------|
------------------------|---------------------|---------------------|
------------------------|---------------------|---------------------|

  H        Q    Q       Q    Q    Q    Q       H        Q    Q
--5--------3----1----|--0---------0----1----|--5--------3----1----|
--6--------5----3----|-------3--------------|---------------------|
---------------------|--2-------------------|--2------------------|
---------------------|----------------------|---------------------|
---------------------|----------------------|---------------------|
---------------------|----------------------|---------------------|

  Q    Q    Q    Q       W                   H        Q    Q
--0-------------------|--0----------------|--0-------------0----||
--0----3----2----3----|--0----------------|--2--------3---------||
----------------------|-------------------|--2------------------||
----------------------|-------------------|---------------------||
----------------------|-------------------|---------------------||
----------------------|-------------------|---------------------||

Duration Legend
---------------
W - whole
H - half
Q - quarter
E - 8th
S - 16th
T - 32nd
X - 64th
. - note dotted
|-n-|  - n-tuplets

Tablature Legend
----------------
L - tied note
Tap to rate this tab
# A B C D E F G H I J K L M N O P Q R S T U V W X Y Z