Song name
# A B C D E F G H I J K L M N O P Q R S T U V W X Y Z

Nobuo Uematsu - Knock It Down tab

-------------------------------------------------------------------------------
			     KNOCK IT DOWN - Nobuo Uematsu
-------------------------------------------------------------------------------
Tabbed by:Loup de Fer
Email: loup.de.fer@neuf.fr

Tuning:EADGBe

Intro

e|---------------------------------------------------------------------------|
B|---------------------------------------------------------------------------|
G|---------------------------------------------------------------------------|
D|---------------------------------------------------------------------------|
A|-3--0-1-3--0-1-3--0-1-3--0-1-3--0-1-3--0-1-3--0-1-3------------------------|
E|---------------------------------------------------------------------------|

Part 1

e|---------------------------------------------------------------------------|
B|---------------------------------------------------------------------------|
G|--------5--7--5-----------------------7---7-5------------------------------|
D|-5--7-8---------8--5-8-7-8--3-5---------8-----7-5-7-8-5-8-7---8---5--------|	x2
A|------------------------------------------------------------8---8----------|
E|---------------------------------------------------------------------------|

Part 2

e|---------------------------------------------------------------------------|
B|-13-10-13--10-11-8--13-10-13--10----10-8-----------------------------------|
G|---------------------------------10----------------------------------------|
D|---------------------------------------------------------------------------|
A|---------------------------------------------------------------------------|
E|---------------------------------------------------------------------------|

e|---------------------------------------------------------------------------|
B|-13-10-13--10-11-8--13-10-13--10-15-11-16-15-13-11-10-9-10-11-13-15--------|
G|---------------------------------------------------------------------------|
D|---------------------------------------------------------------------------|
A|---------------------------------------------------------------------------|
E|---------------------------------------------------------------------------|

e|-----------------------------------------------------------------------------|
B|------10-11---8---11-8-11-10--11-13-15-11-10-8-----8-10--11---8---11-8-11-10-|
G|-7-11------------------------------------------10----------------------------|
D|-----------------------------------------------------------------------------|
A|-----------------------------------------------------------------------------|
E|-----------------------------------------------------------------------------|

e|-------------------------------13----15------------------------------------|
B|-11-13-15-11-16-15-13-15-16-13----15---------------------------------------|
G|---------------------------------------------------------------------------|
D|---------------------------------------------------------------------------|
A|---------------------------------------------------------------------------|
E|---------------------------------------------------------------------------|


| /  slide up
| \  slide down
| h  hammer-on
| p  pull-off
| ~  vibrato
| +  harmonic
| x  Mute note
===============================================================================
Tap to rate this tab
 
# A B C D E F G H I J K L M N O P Q R S T U V W X Y Z