Guitaretab - guitar tabs
Song name
# A B C D E F G H I J K L M N O P Q R S T U V W X Y Z

Nobuo Uematsu - Rebel Army Theme tab

-------------------------------------------------------------------------------
			     REBEL ARMY THEME (FF2) - Nobuo Uematsu
-------------------------------------------------------------------------------
Tabbed by:Loup de Fer
Email:

Tuning:EADGBe

Part 1

e|--------------------------10-------------12-10-12-10-----------------------|
B|-----------------10----12----13-12-10-12-------------10-12-----------------|
G|---9-11-12-11-12-----------------------------------------------------------|
D|-9------------------12-----------------------------------------------------|
A|---------------------------------------------------------------------------|
E|---------------------------------------------------------------------------|

e|-------12-12-10------------------------------------------------------------|
B|-12-12----------10-12-13-12--10--13-12-------------------------------------|
G|----------------------------------------12-11-----11-----9-11-12-----------|
D|-----------------------------------------------11-----11-------------------|
A|---------------------------------------------------------------------------|
E|---------------------------------------------------------------------------|

Part 2
[ Tab from: http://www.guitaretab.com/n/nobuo-uematsu/92051.html ]
e|--------------------------10-------------12-10-12-10-----------------------|
B|-----------------10----12----13-12-10-12-------------10-12-----------------|
G|---9-11-12-11-12-----------------------------------------------------------|
D|-9------------------12-----------------------------------------------------|
A|---------------------------------------------------------------------------|
E|---------------------------------------------------------------------------|

e|-------12--15-14-12-10-----------------------------------------------------|
B|-12-12-----------------13-12--10-13-12-----------11------------------------|
G|----------------------------------------12-11-11----8-9-11-9---------------|
D|---------------------------------------------------------------------------|
A|---------------------------------------------------------------------------|
E|---------------------------------------------------------------------------|

Guitar part

e|---------------------------------------------------------------------------|
B|--------------------3------------5-0-3--3-5-3------------------------------|
G|--------------2---4---5-4-2--4----------------2-4--------------------------|
D|---2-4-5--4-5------------------5-------------------------------------------|
A|-2--------------5----------------------------------------------------------|
E|---------------------------------------------------------------------------|

e|---------------------------------------------------------------------------|
B|-------5--------5------5-3-------------------------------------------------|
G|-----4--------4-------4-----2-4-5-4----2-5-4-------------3----1-3-4--------|
D|-2-5------2-5------2-5---------------5--------2-5-2-4--4----4--------------|
A|---------------------------------------------------------------------------|
E|---------------------------------------------------------------------------|

Then, play again the part 2.

Enjoy!

| /  slide up
| \  slide down
| h  hammer-on
| p  pull-off
| ~  vibrato
| +  harmonic
| x  Mute note
===============================================================================
Related for Rebel Army Theme tab
Advertisement will be closed in 10 seconds