Song name
# A B C D E F G H I J K L M N O P Q R S T U V W X Y Z

Nobuo Uematsu - Anger And Sorrow tab

-------------------------------------------------------------------------------
			     ANGER AND SORROW - Nobuo Uematsu
-------------------------------------------------------------------------------
Tabbed by:Loup de Fer
Email:

Tuning:EADGBe

guitar part

e|---------------------------------------------------------------------------|              ?  
B|---------------10-11-13-10------------------10-11-13-10---13/15------------|              ?
G|-------9-10-12----------------------9-10-12--------------------------------|              ?
D|-11/12------------------------11/12----------------------------------------|              ?
A|---------------------------------------------------------------------------|              ?
E|---------------------------------------------------------------------------|              ?
                                                                                            ??x2
e|-----------------------------------------------------------------------------------------|?
B|---------------10-11-13-10-------------10---------------------------------------------10-|?
G|-------9-10-12----------------10-10-12--------10-10-12-9----9-10-9----------9-10-9-------|?
D|-11/12-------------------------------------------------------------12--------------12----|?
A|----------------------------------------------------------------------12-----------------|?
E|-----------------------------------------------------------------------------------------|?

bells part

e|---------------------------------------------------------------------------|
B|------------10-11-13-10-----------------10-11-13-10---13h15----------------|
G|----9-10-12---------------------9-10-12------------------------------------|
D|-12--------------------------12--------------------------------------------|
A|---------------------------------------------------------------------------|
E|---------------------------------------------------------------------------|

e|---------------------------------------------------------------------------|
B|-15-13-15-13--11----10-11----11-10-11-10-----------------------------------|
G|-----------------12----------------------12----10-12-----------------------|
D|--------------------------------------------13-----------------------------|
A|---------------------------------------------------------------------------|
E|---------------------------------------------------------------------------|

e|---------------------------------------------------------------------------|
B|---------------------------------------------------------------------------|
G|-12-11-12-11-9-------9----14-12-14-12-11-------9---------------------------|
D|---------------10-12---------------------10-12-----------------------------|
A|---------------------------------------------------------------------------|
E|---------------------------------------------------------------------------|


| /  slide up
| \  slide down
| h  hammer-on
| p  pull-off
| ~  vibrato
| +  harmonic
| x  Mute note
===============================================================================
Tap to rate this tab
 
# A B C D E F G H I J K L M N O P Q R S T U V W X Y Z