Song name
# A B C D E F G H I J K L M N O P Q R S T U V W X Y Z

Nobuo Uematsu - Roses And Wine tab

------------------------------------------------------------------------------
		     Roses and Wine - Nobuo Uematsu
-------------------------------------------------------------------------------
Tabbed by: Gallagher2006

Tuning: Standard

Hey guys. Use an acoustic guitar for this (Probably a nylon stringed 
would fit best) Sorry for the cramped appearance, but this song has 
its share of note changes, so just having a “repeat this section” 
part wouldn’t really work

e|-5--3---2---5----0--2--0--2--5------3--2--0--3--0--5---3--5--9-------------|
B|---------------------------------------------------------------------------|
G|-6--4---2---6----0--2--0--2--6--x3--4--2--0--4--0--6---4--6--9-------------|
D|---------------------------------------------------------------------------|
A|---------------------------------------------------------------------------|
E|---------------------------------------------------------------------------|

e|--5---3---2--5--0--5--4--5---9----7---5---3---7--3---5---3---5--9----------|
B|---------------------------------------------------------------------------|
G|--6---4---2--6--0--6--4--6---9----7---6---4---7--4---6---4---6--9----------|
D|---------------------------------------------------------------------------|
A|---------------------------------------------------------------------------|
E|---------------------------------------------------------------------------|

e|--7---5--2--7--2---5--4--5---9------5---3--2--5--0--3--7-------------------|
B|-------------------------------------------------------------then repeat---|
G|--7---6--4--7--4---6--4--6---9------6---4--2--6--0--4--7-------------------|
D|---------------------------------------------------------------------------|
A|---------------------------------------------------------------------------|
E|---------------------------------------------------------------------------|

Any comments...leave in the comments section =]
Tap to rate this tab
 
# A B C D E F G H I J K L M N O P Q R S T U V W X Y Z