Song name
# A B C D E F G H I J K L M N O P Q R S T U V W X Y Z

Nobuo Uematsu - Final Fantasy X - Tidus Theme tab

Hey everyone, i have only been playing the guitar for around a month now. And i have had 
go of all the great tabs here.
But the one tab that i really wanted is a Guitar Pro tab which i cant use :(

When i searched the tab i see a guy playing the song on Youtube so i studied the vid and 
myself the tab from that :)

Here it is, as i say im very new so if anyone can see any problems, or improvements let 
know. Thanks!

E||--------------------|-------------------|--------------------|
B||--------------5--8--|---6---------------|------------5--8----|
G||--------5--7--------|------7--4--5------|------5--7----------|
D||----5---------------|---------------5---|---5----------------|
A||--------------------|-------------------|--------------------|
E||--------------------|-------------------|--------------------|

E||--------------------|---------------7---|---7----------------|
B||----8---6--0--5-----|---------5--8------|------8--0--5-------|
G||-----------------7--|---5--7------------|---------------7----|
D||--------------------|-------------------|--------------------|
A||--------------------|-------------------|--------------------|
E||--------------------|-------------------|--------------------|

E||--------------------|-------------------|--------------------|
B||--------------------|-------------------|-------------17--20-|
G||--------9--7--9--10-|---9--7--9--10-----|-----17--19---------|
D||----7---------------|-------------------|-17-----------------|
A||--------------------|-------------------|--------------------|
E||--------------------|-------------------|--------------------|

E||--------------------|-------------------|--------------------|
B||-18-----------------|-------------17-20-|--------------------|
G||-----19--16--17-----|-----17--19--------|-22--19------21--19-|
D||-----------------17-|-17----------------|---------19---------|
A||--------------------|-------------------|--------------------|
E||--------------------|-------------------|--------------------|


E||-----------------19-|-19----------------|--------------------|
B||---------17--20-----|-----20------17----|-----------------18-|
G||-17--19-------------|---------17-----19-|-----21--19--21-----|
D||--------------------|-------------------|-19-----------------|
A||--------------------|-------------------|--------------------|
E||--------------------|-------------------|--------------------|


E||--------------------|-------------------|--------------------|
B||---------------18---|--16-----14--12----|--------------------|
G||---21--19--21-------|------15-----------|--------------------|
D||--------------------|-------------------|--------------------|
A||--------------------|-------------------|--------------------|
E||--------------------|-------------------|--------------------|

Repeat From Beginning - Fade out towards the end.

Hope you enjoy!
Tap to rate this tab
# A B C D E F G H I J K L M N O P Q R S T U V W X Y Z