Song name
# A B C D E F G H I J K L M N O P Q R S T U V W X Y Z

Nobuo Uematsu - Still More Fighting tab

Author:Nobuo Uematsu
Tabbed by:facundo_rock_22@hotmail.com

This is a really cool song.Enjoy!
|-------------------------------------------------|
|-------------------------------------------------|
|------------------------------1-0---0------------|
|--0-0-0-3----0-0-0-5----0-0-0-----3---3-2-3---2--|
|-------------------------------------------------| x2
   pm...      pm...      pm...

-------------------------------------------------|
-------------------------------------------------|
-------------------------------------------------|
--------1----------3----------4-3-1-3-1-0-1---0--|
--3-3-3------3-3-3------3-3-3--------------------|
-------------------------------------------------|
  pm...      pm...      pm...

-------------------------------------------------|
-------------------------------------------------|
-------------------------------------------------|
--------1----------3----------4-3-1-3-1-0-1-0----|
--3-3-3------3-3-3------3-3-3-----------------3--|
-------------------------------------------------|
  pm...      pm...      pm...

Repeat from beginning once, then play:

|---------------------------------------------------------------------------|
|---------------------------------------------------------------------------|
|---------------------------------------------------------------------------|
|----------------------------0----------------------------------------------|
|-0--------2--------3-----------------------------------0-----------------0-|
|-------------------------------------1------------3-------------0----------|

Repeat that, then play:

|-------------------------------------------------|
|-------------------------------------------------|
|-------------------------------------------------|
|-------------------------------------------------|
|--0-0-0-0-0-0-0---0--0-0-0-0-0-0-0-0-0---0----0--|
|--------------------------------------------4----|
   pm.........        pm.............        pm...

 -------------------------------------------------|
 -------------------------------------------------|
 -------------------------------------------------|
 -------------------------------------------------|
 --0-0-0-0-0-0-0---0--0-0-0-0-0-0-0-0-0---0--0-0--|
 -------------------------------------------------| x2
   pm.........        pm.............        pm..

------------------------|
------------------------|
------------------------|
------------------------|
-----------0----2----3--|
--3---------------------|

|---------------------------|
|---------------------------|
|---------------------------|
|---------------------------|
|---------------------------|
|--3---3-3-3-3-3-3-3-3-3-3--| x2
   pm.....................

------------------------|
------------------------|
------------------------|
---------------------0--|
--0--------2----4-------|
------------------------|

---------------------------------------------------|
---------------------------------------------------|
---------------------------------------------------|
---------------------------------------------------|
--0---0-0-0-0-0-0-0-0-0-0-1---1-1-1-1-1-1-1-1-1-1--|
---------------------------------------------------|
  pm.............................................

|---------------------------|     ---------------------------|
|---------------------------|     ---------------------------|
|---------------------------|     ---------------------------|
|--0---0-0---0-0---0-0---0--|     --0---0-0---0-0---0-0------|
|---------------------------|     ----------------------3-2--|
|---------------------------| x3  ---------------------------|
   pm.....................          pm.....................

|---------------------------|     --------------------|
|---------------------------|     --------------------|
|---------------------------|     --------------------|
|---------------------------|     --------------------|
|--0---0-0---0-0---0-0---0--|     --0----2----3----4--|
|---------------------------| x3  --------------------|
   pm.....................

|---------------------------|     ---------------------------|
|---------------------------|     ---------------------------|
|---------------------------|     ---------------------------|
|--0---0-0---0-0---0-0---0--|     --0---0-0---0-0---0-0------|
|---------------------------|     ----------------------3-2--|
|---------------------------| x3  ---------------------------|
   pm.....................          pm.....................

|---------------------------|     --------------------|
|---------------------------|     --------------------|
|---------------------------|     --------------------|
|---------------------------|     --------------------|
|--0---0-0---0-0---0-0---0--|     --0----2----3----4--|
|---------------------------| x3  --------------------|
   pm.....................

|---------------------------|     ---------------------------|
|---------------------------|     ---------------------------|
|---------------------------|     ---------------------------|
|--0---0-0---0-0---0-0---0--|     --0---0-0---0-0---0-0------|
|---------------------------|     ----------------------3-2--|
|---------------------------| x3  ---------------------------|
   pm.....................          pm.....................

|---------------------------|
|---------------------------|
|---------------------------|
|---------------------------|
|--0---0-0---0-0---0-0---0--|
|---------------------------| x2
   pm.....................

---------------------------------------------------|
---------------------------------------------------|
---------------------------------------------------|
---------------------------------------------------|
--3---3-3---3-3---3-3---3-2---2-2---2-2---2-2---2--|
---------------------------------------------------|
  pm.............................................

Then repeat from beginning.
Tap to rate this tab
# A B C D E F G H I J K L M N O P Q R S T U V W X Y Z