Song name
# A B C D E F G H I J K L M N O P Q R S T U V W X Y Z

Nocturnal Breed - Revelation 6 tab

Help us improve GuitareTab! Take a short survey!
                    NOCTURNAL BREED - REVELATION 666
                     From the Album AGGRESSOR
                     Copyright (1997 - HAMMERHEART RECORDS)
                     Version 1.0 - (JAN. - 2001)

Transcribed by: REAPER

For Questions, Comments, Newest Version, or Corrections contact
RENE: at BATHORY@HUK.K64.DK

Check Out Death Warp, With More Transcriptions On It:
 http://www.wam.umd.edu/~ekubica

..  - palm mute          /  - slide up to
 \  - slide down to      ~  - vibrato
 h  - hammer on          b  - bend
 p  - pull off            Suffixes for bend
                          ph - pinch harmonic
                           f - full bend    h - half bend
*  - see comment           r - release      t - tap bend
X  - percussion mute       ~ - vibrato bend
@  - slight palm mute     () - ghost note, sustained note

Tune Gtr to Eb


Riff A
|--------------------------------------------------------------------|
|--------------------------------------------------------------------|
|-6-----6-----6-----6------------------------------------------------| 
|-4-444-4-444-4-444-4-5-----5-----5-----5----------------------------| 
|---------------------3-333-3-333-3-333-3----------------------------|
|--------------------------------------------------------------------|

Riff B                                                                    
|--------------------------------------------------------------------|
|--------------------------------------------------------------------|
|--------------------------------------------------------------------| 
|-7-----7-----7-----7------------------------------------------------| 
|-5-555-5-555-5-555-5-6-----6-----6-----6----------------------------|
|---------------------4-444-4-444-4-444-4----------------------------|

Riff C
|--------------------------------------------------------------------|
|--------------------------------------------------------------------|
|--------------------------------------------------------------------|
|-4--4\-7\-8-8/-7--4--4\-7\-8-8/-7--4--4\-7\-8-8/--5-----------------| 
|-4--4\-7\-8-8/-7--4--4\-7\-8-8/-7--4--4\-7\-8-8/--5-----------------|
|-2--2\-5\-6-6/-5--2--2\-5\-6-6/-5--2--2\-5\-6-6/--3-----------------|

Riff D                                                                    
|--------------------------------------------------------------------|
|--------------------------------------------------------------------|
|--------------------------------------------------------------------| 
|-6-----6-----6-----6-7-----7-----7-----7----------------------------| 
|-4-444-4-444-4-444-4-5-555-5-555-5-555-5----------------------------|
|--------------------------------------------------------------------|
Related for Revelation 6 tab