Song name
# A B C D E F G H I J K L M N O P Q R S T U V W X Y Z

Nocturnal Rites - Eternity Holds tab

#----------------------------------PLEASE NOTE---------------------------------#
#This file is the author's own work and represents their interpretation of the #
#song. You may only use this file for private study, scholarship, or research. #
#------------------------------------------------------------------------------#

ETERNITY HOLDS
As recorded by Nocturnal Rites
(From the 1999 Album THE SACRED TALISMAN)

Transcribed by Carlos Acosta (Geeko)
	

Words and Music by Nocturnal Rites

Gtr I (Eb Ab Db Gb Bb Gb) - 'Rhythm 1'
Gtr II (Eb Ab Db Gb Bb Gb) - 'Rhythm 2'
Gtr III (Eb Ab Db Gb Bb Gb) - 'Lead '
Gtr IV (Eb Ab Db Gb Bb Gb) - 'Harmony'

 Intro
  Moderately Fast Metal Q=153
  A5    F5              F5  F5G5      A5    Am  G5  G   G
 4/4
  Gtr I
    PM|   PM----------|   PM    PM|     PM|   PM  PM        PM
  E E E E E E E E   E E E E E E E E   E E E E E E E E   +E  E a Q  S S E E E
|-----------------|-----------------|-----------------|-----------------------|
|-----------------|-----------------|-----------------|-----------------------|
|-2-----5---------|-----5---5s7-----|-2-----5---7---4-|-(4)-------------------|
|-2-----3---------|-----3---3s5-----|-2-----7---5---5-|-(5)---2s3--2s3-2------|
|-0-0-0---0-0-0-0-|-0-0---0-----0-0-|-0-0-0---0---0---|-----0------------3s2--|
|-----------------|-----------------|-----------------|-----------------------|
|
| Gtr II
|   PM|   PM----------|   PM    PM|     PM|   PM  PM        PM
| E E E E E E E E   E E E E E E E E   E E E E E E E E   +E  E a Q  S S E E E
|-----------------|-----------------|-----------------|-----------------------|
|-----------------|-----------------|-----------------|-----------------------|
|-2-----5---------|-----5---5s7-----|-2-----5---7---4-|-(4)-------------------|
|-2-----3---------|-----3---3s5-----|-2-----7---5---5-|-(5)---2s3--2s3-2------|
|-0-0-0---0-0-0-0-|-0-0---0-----0-0-|-0-0-0---0---0---|-----0------------3s2--|
|-----------------|-----------------|-----------------|-----------------------|


  A5    F5              F5  F5G5      F5   A5   G5   G5  E5   G5 G5
    PM|   PM----------|   PM    PM|
  E E E E E E E E   E E E E E E E E   Q.   Q.   Q    +E  Q.   Q  Q
|-----------------|-----------------|--------------|----------------|
|-----------------|-----------------|--------------|----------------|
|-2-----5---------|-----5---5s7-----|--------------|----------------|
|-2-----3---------|-----3---3s5-----|-3----7----5--|-(5)-2----5--5--|
|-0-0-0---0-0-0-0-|-0-0---0-----0-0-|-3----7----5--|-(5)-2----5--5--|
|-----------------|-----------------|-1----5----3--|-(3)-0----3--3--|
|
|   PM|   PM----------|   PM    PM|
| E E E E E E E E   E E E E E E E E   Q.   Q.   Q    +E  Q.   Q  Q
|-----------------|-----------------|--------------|----------------|
|-----------------|-----------------|--------------|----------------|
|-2-----5---------|-----5---5s7-----|-5----9----7--|-(7)-4----7--7--|
|-2-----3---------|-----3---3s5-----|-3----7----5--|-(5)-2----5--5--|
|-0-0-0---0-0-0-0-|-0-0---0-----0-0-|-3----7----5--|-(5)-2----5--5--|
|-----------------|-----------------|--------------|----------------|


 Verse
  $
  A5         A5       A5  F5  F5           F5       F5  D5
  Gtrs I, II
  W          +H.      +E  E   +W           +H.      +E  E
|----------|----------------|------------|----------------|
|----------|--------------6-|-(6)--------|-(6)------(6)---|
|-2--------|-(2)------(2)-5-|-(5)--------|-(5)------(5)-7-|
|-2--------|-(2)------(2)-3-|-(3)--------|-(3)------(3)-7-|
|-0--------|-(0)------(0)---|------------|--------------5-|
|----------|----------------|------------|----------------|


  D5           D5       D5  G5  G5           F5    E5     A5
  +W           +H.      +E  E   +W           E E E Q.   E E
|------------|----------------|------------|----------------|
|------------|----------------|------------|----------------|
|-(7)--------|-(7)------(7)---|------------|--------------2-|
|-(7)--------|-(7)------(7)-5-|-(5)--------|-3-3-3-2------2-|
|-(5)--------|-(5)------(5)-5-|-(5)--------|-3-3-3-2------0-|
|------------|--------------3-|-(3)--------|-1-1-1-0----3---|


  A5           A5       A5  F5  F5           F5       F5  D5
  +W           +H.      +E  E   +W           +H.      +E  E
|------------|----------------|------------|----------------|
|------------|--------------6-|-(6)--------|-(6)------(6)---|
|-(2)--------|-(2)------(2)-5-|-(5)--------|-(5)------(5)-7-|
|-(2)--------|-(2)------(2)-3-|-(3)--------|-(3)------(3)-7-|
|-(0)--------|-(0)------(0)---|------------|--------------5-|
|------------|----------------|------------|----------------|


  D5           D5       D5  G5  G5           F5    E5
  +W           +H.      +E  E   +W           E E E Q.   E E
|------------|----------------|------------|----------------|
|------------|----------------|------------|----------------|
|-(7)--------|-(7)------(7)---|------------|----------------|
|-(7)--------|-(7)------(7)-5-|-(5)--------|-3-3-3-2--------|
|-(5)--------|-(5)------(5)-5-|-(5)--------|-3-3-3-2--------|
|------------|--------------3-|-(3)--------|-1-1-1-0----3-1-|


 Pre-Chorus
                                      A5
  +E  E E E E E E E   +E  E E E E E E E
|-------------------|-------------------|
|-------------------|-------------------|
|-------------------|-----------------2-|
|-------------------|-----------------2-|
|-------3---3s2-----|-------3---3s5-3-0-|
|-(1)-1---1-----5-3-|-(3)-3---3---------|


  A5      Am        G           Am        G     Am
      PM|   PM----|   PM----|     PM----|   PM|
  +E  S S E S S S S E S S S S   E S S S S E S S E +E  E
|-----------------------------|--------------------------|
|-----------------------------|--------------------------|
|-(2)-----5---------4---------|-5---------4-----5-(5)----|
|-(2)-----7---------5---------|-7---------5-----7-(7)----|
|-(0)-0-0---0-0-0-0---0-0-0-0-|---0-0-0-0---0-0----------|
|-----------------------------|-----------------------1--|


                                      E5  E5       E5F5    G5 G5G5
  +E  E E E E E E E   +E  E E E E E E E   +H.      E E   E q  E q   Q
|-------------------|-------------------|--------------|----------------|
|-------------------|-------------------|--------------|----------------|
|-------------------|-------------------|--------------|----------------|
|-------------------|-----------------2-|-(2)------2-3-|---5--5-5-------|
|-------3---3s2-----|-------3---3s5-3-2-|-(2)------2-3-|---5--5-5-------|
|-(1)-1---1-----5-3-|-(3)-3---3-------0-|-(0)------0-1-|---3--3-3--12\--|


 Chorus
  $$
  A5    F5              F5  F5G5      A5    Am  G5  G   G
  Gtr I
    PM|   PM----------|   PM    PM|     PM|   PM  PM        PM
  E E E E E E E E   E E E E E E E E   E E E E E E E E   +E  E a Q  S S E E E
|-----------------|-----------------|-----------------|----------------------|
|-----------------|-----------------|-----------------|----------------------|
|-2-----5---------|-----5---5s7-----|-2-----5---7---4-|-(4)------------------|
|-2-----3---------|-----3---3s5-----|-2-----7---5---5-|-(5)---2s3--2s3-2-----|
|-0-0-0---0-0-0-0-|-0-0---0-----0-0-|-0-0-0---0---0---|-----0------------3s2-|
|-----------------|-----------------|-----------------|----------------------|
|
| Gtr II
|   PM|   PM----------|   PM    PM|     PM|   PM  PM        PM
| E E E E E E E E   E E E E E E E E   E E E E E E E E   +E  E a Q  S S E E E
|-----------------|-----------------|-----------------|----------------------|
|-----------------|-----------------|-----------------|----------------------|
|-2-----5---------|-----5---5s7-----|-2-----5---7---4-|-(4)------------------|
|-2-----3---------|-----3---3s5-----|-2-----7---5---5-|-(5)---2s3--2s3-2-----|
|-0-0-0---0-0-0-0-|-0-0---0-----0-0-|-0-0-0---0---0---|-----0------------3s2-|
|-----------------|-----------------|-----------------|----------------------|


                                                             D.S.
  A5    F5              F5  F5G5      F5   A5   G5   G5  E5   G5 G5
    PM|   PM----------|   PM    PM|
  E E E E E E E E   E E E E E E E E   Q.   Q.   Q    +E  Q.   Q  Q
|-----------------|-----------------|--------------|----------------|
|-----------------|-----------------|--------------|----------------|
|-2-----5---------|-----5---5s7-----|--------------|----------------|
|-2-----3---------|-----3---3s5-----|-3----7----5--|-(5)-2----5--5--|
|-0-0-0---0-0-0-0-|-0-0---0-----0-0-|-3----7----5--|-(5)-2----5--5--|
|-----------------|-----------------|-1----5----3--|-(3)-0----3--3--|
|
|   PM|   PM----------|   PM    PM|
| E E E E E E E E   E E E E E E E E   Q.   Q.   Q    +E  Q.   Q  Q
|-----------------|-----------------|--------------|----------------|
|-----------------|-----------------|--------------|----------------|
|-2-----5---------|-----5---5s7-----|-5----9----7--|-(7)-4----7--7--|
|-2-----3---------|-----3---3s5-----|-3----7----5--|-(5)-2----5--5--|
|-0-0-0---0-0-0-0-|-0-0---0-----0-0-|-3----7----5--|-(5)-2----5--5--|
|-----------------|-----------------|--------------|----------------|


    PM|   PM----------|   PM    PM|     PM|   PM  PM        PM
  E E E E E E E E   E E E E E E E E   E E E E E E E E   +E  E a Q  S S E E E
|-----------------|-----------------|-----------------|----------------------|
|-----------------|-----------------|-----------------|----------------------|
|-2-----5---------|-----5---5s7-----|-2-----5---7---4-|-(4)------------------|
|-2-----3---------|-----3---3s5-----|-2-----7---5---5-|-(5)---2s3--2s3-2-----|
|-0-0-0---0-0-0-0-|-0-0---0-----0-0-|-0-0-0---0---0---|-----0------------3s2-|
|-----------------|-----------------|-----------------|----------------------|
|
|   PM|   PM----------|   PM    PM|     PM|   PM  PM        PM
| E E E E E E E E   E E E E E E E E   E E E E E E E E   +E  E a Q  S S E E E
|-----------------|-----------------|-----------------|----------------------|
|-----------------|-----------------|-----------------|----------------------|
|-2-----5---------|-----5---5s7-----|-2-----5---7---4-|-(4)------------------|
|-2-----3---------|-----3---3s5-----|-2-----7---5---5-|-(5)---2s3--2s3-2-----|
|-0-0-0---0-0-0-0-|-0-0---0-----0-0-|-0-0-0---0---0---|-----0------------3s2-|
|-----------------|-----------------|-----------------|----------------------|


                                                          To Coda
  A5    F5              F5  F5G5      F5   A5   G5   G5  E5   G5 G5
    PM|   PM----------|   PM    PM|
  E E E E E E E E   E E E E E E E E   Q.   Q.   Q    +E  Q.   Q  Q
|-----------------|-----------------|--------------|----------------|
|-----------------|-----------------|--------------|----------------|
|-2-----5---------|-----5---5s7-----|--------------|----------------|
|-2-----3---------|-----3---3s5-----|-3----7----5--|-(5)-2----5--5--|
|-0-0-0---0-0-0-0-|-0-0---0-----0-0-|-3----7----5--|-(5)-2----5--5--|
|-----------------|-----------------|-1----5----3--|-(3)-0----3--3--|
|
|   PM|   PM----------|   PM    PM|
| E E E E E E E E   E E E E E E E E   Q.   Q.   Q    +E  Q.   Q  Q
|-----------------|-----------------|--------------|----------------|
|-----------------|-----------------|--------------|----------------|
|-2-----5---------|-----5---5s7-----|-5----9----7--|-(7)-4----7--7--|
|-2-----3---------|-----3---3s5-----|-3----7----5--|-(5)-2----5--5--|
|-0-0-0---0-0-0-0-|-0-0---0-----0-0-|-3----7----5--|-(5)-2----5--5--|
|-----------------|-----------------|--------------|----------------|


 Guitar Solo
  A5         A5           B5
  Gtrs I, II
                                   PM--------------------
  W          +W            Q       E  E E  E    E  E
|----------|------------|-------------------------------|
|----------|------------|-------------------------------|
|-2--------|-(2)--------|--4----------------------------|
|-2--------|-(2)--------|--4----------------------------|
|-0--------|-(0)--------|--2-------2--2-2--2----2--2----|
|----------|------------|-------------------------------|
|
| Gtr III
|                                  ~~~~
| W           W            Q      +Q.      q       E
|----------|------------|-------------------------------|
|----------|------------|-12-----(12)-----14------15----|
|----------|------------|-14b16--(14)-----17b18---18b19-|
|----------|------------|-------------------------------|
|----------|------------|-------------------------------|
|----------|------------|-------------------------------|


 ------------------|
    E  E E  E    E  E    Q
|---------------------------|
|---------------------------|
|---------------------------|
|------------------------0--|
|---2--2-2--2----2--2-------|
|---------------------------|
|
|   ~~~~
|  +Q.      q       Q.
|---------------------------|
|-(15)-----15------17-------|
|-(18)-----18b19---20b21----|
|---------------------------|
|---------------------------|
|---------------------------|


  G5
              PM---------------------------------------------------|
   Q          E   E  E E   E   E     E  E   E  E     E  E        E  E
|--------------------------------|------------------------------------|
|--------------------------------|------------------------------------|
|--------------------------------|------------------------------------|
|--5-----------------------------|------------------------------------|
|--5-----------------------------|------------------------------------|
|--3----------3---3--3-3---3---3-|---3--3---3--3-----3--3--------3--2-|
|
|                              ~~~~~~~~~~~~~~~~                     ~~~
|                                                       |--3--|
|  E      +Q     +Q.      +E   E    +Q     +Q     a  E  S  S  S  E  E
|-17b19==(17)---(17)-----(17)r17-|-(17)---(17)---14h15-14h15p14-------|
|--------------------------------|------------------------------15-17-|
|--------------------------------|------------------------------------|
|--------------------------------|------------------------------------|
|--------------------------------|------------------------------------|
|--------------------------------|------------------------------------|


  E5
        PM------------------------------------------|
    Q   E E     E  E        E  E     E  E E E E E E  E
|--------------------------------|------------------------|
|--------------------------------|------------------------|
|--------------------------------|------------------------|
|---2----------------------------|------------------------|
|---2----------------------------|------------------------|
|---0---0-0-----0--0--------0--0-|---0--0-0-0-0-0-0--0----|
|
|~~~~~~
|                  |--3--|
|  +H        a  E  S  S  S  E  E    +H        E E E  E
|--------------------------------|------------------------|
|-(17)------14h15-14h15p14-10----|------------------------|
|-----------------------------11-|-(11)-------9p7-9-10b11-|
|--------------------------------|------------------------|
|--------------------------------|------------------------|
|--------------------------------|------------------------|


  F#5
          PM----------------------------------------------------------------|
    Q     E   E     E    E   E     E      E      E       E    E      E  E E E
|--------------------------------------|--------------------------------------|
|--------------------------------------|--------------------------------------|
|--------------------------------------|--------------------------------------|
|---4----------------------------------|--------------------------------------|
|---4----------------------------------|--------------------------------------|
|---2-----2---2-----2----2---2-----2---|--2------2-------2----2------2--2-2-2-|
|
|                                                             PM--|  ~~~
|                                         |-3-|               |-3-|
|  +E  E  S S S  S  S S  S S S  S  S S    S S S  E       S  S S S S  H
|------7-------------------------------|--------------------------------------|
|------7-10p7------10p7-12p7-----------|---------------[10]-------------------|
|-(10)--------9h11-----------9h11-10p9-|-10p9p7-[9]b10------9-------[7]-------|
|--------------------------------------|----------------------9-9-9-----------|
|--------------------------------------|--------------------------------------|
|--------------------------------------|--------------------------------------|


  A5
              PM------------------------------------
  Q           E     E      E     E     E     E
|--------------------------------------------------|
|--------------------------------------------------|
|-2------------------------------------------------|
|-2------------------------------------------------|
|-0-----------0-----0------0-----0-----0-----0-----|
|--------------------------------------------------|
|
| |----------------------6-----------------------|
| S S S S S S S S S S  S S S S S S S S S S S S S S
|-5-8-5-0-0-0-0-0-0-8-12-8-0-0-0-0-0-0-5-8-5-0-0-0-|
|--------------------------------------------------|
|--------------------------------------------------|
|--------------------------------------------------|
|--------------------------------------------------|
|--------------------------------------------------|


 --------------------------------|
  E     E     E     E      E     E     Q
|---------------------------------------------------|
|---------------------------------------------------|
|---------------------------------------------------|
|---------------------------------------------------|
|-0-----0-----0-----0------0-----0-----0------------|
|---------------------------------------------------|
|
| |----------------------6-----------------------|
| S S S S S S S S S S  S S S S S S S S S S S S S S
|-5-8-5-0-0-0-0-0-0-8-12-8-0-0-0-0-0-0-5-8-5-0-0-0--|
|---------------------------------------------------|
|---------------------------------------------------|
|---------------------------------------------------|
|---------------------------------------------------|
|---------------------------------------------------|


  F5
                     PM---------------------------------------------------
   Q                 E        E       E        E        E        E
|------------------------------------------------------------------------|
|------------------------------------------------------------------------|
|------------------------------------------------------------------------|
|--3---------------------------------------------------------------------|
|--3---------------------------------------------------------------------|
|--1-----------------1--------1-------1--------1--------1--------1-------|
|
|  |---------------------------------6---------------------------------|
|  S  S  S  S  S  S  S  S  S  S S  S  S  S  S  S  S  S  S  S  S  S  S  S
|-------------------------------8----------------------------------------|
|----------------------------10---10-------------------------------------|
|-10s14s10-10-10-10-10-10-10---------10-10-10-10-10-10-10s14s10-10-10-10-|
|------------------------------------------------------------------------|
|------------------------------------------------------------------------|
|------------------------------------------------------------------------|


 ---------------------------------------------------------------|
   E        E        E        E       E        E        E        E
|-------------------------------------------------------------------------|
|-------------------------------------------------------------------------|
|-------------------------------------------------------------------------|
|-------------------------------------------------------------------------|
|-------------------------------------------------------------------------|
|--1--------1--------1--------1-------1--------1--------1--------1--------|
|
|  |---------------------------------6---------------------------------|
|  S  S  S  S  S  S  S  S  S  S S  S  S  S  S  S  S  S  S  S  S  S  S  S
|-------------------------------8-----------------------------------------|
|----------------------------10---10--------------------------------------|
|-10s14s10-10-10-10-10-10-10---------10-10-10-10-10-10-10s14s10-10-10-10--|
|-------------------------------------------------------------------------|
|-------------------------------------------------------------------------|
|-------------------------------------------------------------------------|


  G5
                     PM----------------------------------------------------
   Q                 E        E        E        E        E        E
|-------------------------------------------------------------------------|
|-------------------------------------------------------------------------|
|-------------------------------------------------------------------------|
|--5----------------------------------------------------------------------|
|--5----------------------------------------------------------------------|
|--3-----------------3--------3--------3--------3--------3--------3-------|
|
|  |---------------------------------6----------------------------------|
|  S  S  S  S  S  S  S  S  S  S  S  S  S  S  S  S  S  S  S  S  S  S  S  S
|-------------------------------10----------------------------------------|
|----------------------------12----12-------------------------------------|
|-12s16s12-12-12-12-12-12-12----------12-12-12-12-12-12-12s16s12-12-12-12-|
|-------------------------------------------------------------------------|
|-------------------------------------------------------------------------|
|-------------------------------------------------------------------------|


 ----------------------------------------------------------------|
   E        E        E        E        E        E        E        E
|--------------------------------------------------------------------------|
|--------------------------------------------------------------------------|
|--------------------------------------------------------------------------|
|--------------------------------------------------------------------------|
|--------------------------------------------------------------------------|
|--3--------3--------3--------3--------3--------3--------3--------3--------|
|
|  |---------------------------------6----------------------------------|
|  S  S  S  S  S  S  S  S  S  S  S  S  S  S  S  S  S  S  S  S  S  S  S  S
|-------------------------------10-----------------------------------------|
|----------------------------12----12--------------------------------------|
|-12s16s12-12-12-12-12-12-12----------12-12-12-12-12-12-12s16s12-12-12-12--|
|--------------------------------------------------------------------------|
|--------------------------------------------------------------------------|
|--------------------------------------------------------------------------|


  E5
                     PM------------------------------------------|
   Q                 E        E        E        E        E        E
|-------------------------------------------------------------------------|
|-------------------------------------------------------------------------|
|-------------------------------------------------------------------------|
|--2----------------------------------------------------------------------|
|--2----------------------------------------------------------------------|
|--0-----------------0--------0--------0--------0--------0--------0-------|
|
|  |---------------------------------6----------------------------------|
|  S  S  S  S  S  S  S  S  S  S  S  S  S  S  S  S  S  S  S  S  S  S  S  S
|-------------------------------10----------------------------------------|
|----------------------------12----12-------------------------------------|
|-13s16s13-13-13-13-13-13-13----------13-13-13-13-13-13-13s16s13-13-13-13-|
|-------------------------------------------------------------------------|
|-------------------------------------------------------------------------|
|-------------------------------------------------------------------------|


   H                                   H
|--------------------------------------------------------------------|
|--------------------------------------------------------------------|
|--------------------------------------------------------------------|
|--3-----------------------------------5-----------------------------|
|--3-----------------------------------5-----------------------------|
|--1-----------------------------------3-----------------------------|
|
|  |--3--|  |--3--|  |--3--|  |--3--|  |--3--|  |--3--|  |--3--|
|  S  S  S  S  S  S  S  S  S  S  S  S  S  S  S  S  S  S  S  S  S  E
|--------------------------------------------------------------------|
|--------------------------------------------------------------------|
|-14s17s14-14-14-14-14-14-14-14-14-14-12s16s12-12-12-12-12-12-12-12/-|
|--------------------------------------------------------------------|
|--------------------------------------------------------------------|
|--------------------------------------------------------------------|


  A5      F5                      F5    F5    G5
     PM|      PM---------------|      PM              PM|
   E E  E  E  E E  E  E     E   E  E  E  E    E       E E
|-----------------------|---------------------------------|
|-----------------------|---------------------------------|
|--2-------5------------|----------5-----5s===7-----------|
|--2-------3------------|----------3-----3s===5-----------|
|--0-0--0-----0-0--0--0-|---0---0-----0---------------0-0-|
|-----------------------|---------------------------------|
|
|  Q    E  Q.      E  E    +E   E  E  E  E.      +S   Q
|-----------------------|---------------------------------|
|------13-12------13----|------13-12-13-13b15r==(13)-12---|
|-14-----------------14-|-(14)----------------------------|
|-----------------------|---------------------------------|
|-----------------------|---------------------------------|
|-----------------------|---------------------------------|


  A5      Am    G5   G    G
     PM|      PM   PM           PM
   E E  E  E  E E  E  E    +E   E       a  Q     S    S E E   E
|-----------------------|-----------------------------------------|
|-----------------------|-----------------------------------------|
|--2-------5----7-----4-|--(4)------------------------------------|
|--2-------7----5-----5-|--(5)----------2s=3-----2s===3-2---------|
|--0-0--0-----0----0----|-------0-------------------------3s==2---|
|-----------------------|-----------------------------------------|
|
|                               |--3--|
|  Q    E  Q.      E  E    +E   S  S  S    E  E  Q.          +E
|--------------------12-|-(12)-10h12p10---------------------------|
|------13-12------13----|-----------------13-12-13b15r======(13)--|
|-14--------------------|-----------------------------------------|
|-----------------------|-----------------------------------------|
|-----------------------|-----------------------------------------|
|-----------------------|-----------------------------------------|


  A5      F5                      F5    F5    G5
     PM|      PM---------------|      PM              PM|
   E E  E  E  E E  E  E     E   E  E  E  E    E       E E
|-----------------------|---------------------------------|
|-----------------------|---------------------------------|
|--2-------5------------|----------5-----5s===7-----------|
|--2-------3------------|----------3-----3s===5-----------|
|--0-0--0-----0-0--0--0-|---0---0-----0---------------0-0-|
|-----------------------|---------------------------------|
|
|  Q    E  Q.      E  E    +E   E  E  E  E.      +S   Q
|-----------------------|---------------------------------|
|------13-12------13----|------13-12-13-13b15r==(13)-12---|
|-14-----------------14-|-(14)----------------------------|
|-----------------------|---------------------------------|
|-----------------------|---------------------------------|
|-----------------------|---------------------------------|


  F5    A5    G5           G5   E5    G5  G5
   Q.    Q.    Q            +E   Q.    Q   Q
|------------------------|---------------------|
|------------------------|---------------------|
|------------------------|---------------------|
|--3-----7-----5---------|--(5)--2-----5---5---|
|--3-----7-----5---------|--(5)--2-----5---5---|
|--1-----5-----3---------|--(3)--0-----3---3---|
|
|  Q.    Q.    E     +E     +E   Q.    Q   Q
|------------------------|---------------------|
|-------12----15b17-(15)-|-(15)-15----13--12---|
|-14---------------------|---------------------|
|------------------------|---------------------|
|------------------------|---------------------|
|------------------------|---------------------|


  A5      F5                      F5    F5    G5
     PM|      PM---------------|      PM              PM|
   E E  E  E  E E  E  E     E   E  E  E  E    E       E E
|-----------------------|---------------------------------|
|-----------------------|---------------------------------|
|--2-------5------------|----------5-----5s===7-----------|
|--2-------3------------|----------3-----3s===5-----------|
|--0-0--0-----0-0--0--0-|---0---0-----0---------------0-0-|
|-----------------------|---------------------------------|
|
|  Q    E  Q.      E  E    +E   E  E  E  E.      +S   Q
|-----------------------|---------------------------------|
|------13-12------13----|------13-12-13-13b15r==(13)-12---|
|-14-----------------14-|-(14)----------------------------|
|-----------------------|---------------------------------|
|-----------------------|---------------------------------|
|-----------------------|---------------------------------|
|
| Gtr IV
|  Q    E  Q.      E  E    +E   E  E  E  E.      +S   Q
|-----------------------|---------------------------------|
|------17-15------17----|------17-15-17-17b18r==(17)-15---|
|-17-----------------17-|-(17)----------------------------|
|-----------------------|---------------------------------|
|-----------------------|---------------------------------|
|-----------------------|---------------------------------|


  A5      Am    G5   G    G
     PM|      PM   PM           PM
   E E  E  E  E E  E  E    +E   E       a  Q     S    S E E   E
|-----------------------|-----------------------------------------|
|-----------------------|-----------------------------------------|
|--2-------5----7-----4-|--(4)------------------------------------|
|--2-------7----5-----5-|--(5)----------2s=3-----2s===3-2---------|
|--0-0--0-----0----0----|-------0-------------------------3s==2---|
|-----------------------|-----------------------------------------|
|
|                               |--3--|
|  Q    E  Q.      E  E    +E   S  S  S    E  E  Q.          +E
|--------------------12-|-(12)-10h12p10---------------------------|
|------13-12------13----|-----------------13-12-13b15r======(13)--|
|-14--------------------|-----------------------------------------|
|-----------------------|-----------------------------------------|
|-----------------------|-----------------------------------------|
|-----------------------|-----------------------------------------|
|
|                               |--3--|
|  Q    E  Q.      E  E    +E   S  S  S    E  E  Q.          +E
|-----------------------|-----------------------------------------|
|------17-15------17-20-|-(20)-18h20p18---17-15-17b18r======(17)--|
|-17--------------------|-----------------------------------------|
|-----------------------|-----------------------------------------|
|-----------------------|-----------------------------------------|
|-----------------------|-----------------------------------------|


  A5      F5                      F5    F5    G5
     PM|      PM---------------|      PM              PM|
   E E  E  E  E E  E  E     E   E  E  E  E    E       E E
|-----------------------|---------------------------------|
|-----------------------|---------------------------------|
|--2-------5------------|----------5-----5s===7-----------|
|--2-------3------------|----------3-----3s===5-----------|
|--0-0--0-----0-0--0--0-|---0---0-----0---------------0-0-|
|-----------------------|---------------------------------|
|
|  Q    E  Q.      E  E    +E   E  E  E  E.      +S   Q
|-----------------------|---------------------------------|
|------13-12------13----|------13-12-13-13b15r==(13)-12---|
|-14-----------------14-|-(14)----------------------------|
|-----------------------|---------------------------------|
|-----------------------|---------------------------------|
|-----------------------|---------------------------------|
|
|  Q    E  Q.      E  E    +E   E  E  E  E.      +S   Q
|-----------------------|---------------------------------|
|------17-15------17----|------17-15-17-17b18r==(17)-15---|
|-17-----------------17-|-(17)----------------------------|
|-----------------------|---------------------------------|
|-----------------------|---------------------------------|
|-----------------------|---------------------------------|


  F5      A5       G5      G5   E5        G5    G5
   Q.      Q.       Q       +E   Q.        Q     Q
|------------------------|---------------------------|
|------------------------|---------------------------|
|------------------------|---------------------------|
|--3-------7--------5----|--(5)--2---------5-----5---|
|--3-------7--------5----|--(5)--2---------5-----5---|
|--1-------5--------3----|--(3)--0---------3-----3---|
|
|  Q    E  Q     E  E  E    +E   E   E  E  E  E  Q
|------------------------|----------------17-19-17---|
|------12-13---/15-17-18-|-(18)-17--18-20------------|
|-14---------------------|---------------------------|
|------------------------|---------------------------|
|------------------------|---------------------------|
|------------------------|---------------------------|
|
|  Q    E  Q     E  E  E    +E   E   E  E  E  E  Q
|------------------------|----------17-19-20-22-20---|
|------15-17---/18-20-22-|-(22)-20-------------------|
|-17---------------------|---------------------------|
|------------------------|---------------------------|
|------------------------|---------------------------|
|------------------------|---------------------------|


 Breakdown
  A5               F5                 F5      F5G5
  Gtr I
           PM-|      PM-------------|     PM      PM|
   E       E    E  E E E E E     E  E E   E   E E E E
|----------------------------|------------------------|
|----------------------------|------------------------|
|--2---------------5---------|--------5-------5s7-----|
|--2---------------3---------|--------3-------3s5-----|
|--0-------0----0----0-0-0-0-|---0--0-----0-------0-0-|
|----------------------------|------------------------|
|
| Gtr III
|  E      +E   +H.              +Q.      +Q.      Q
|-22b24==(22)-(22)-----------|-(22)-----(22)\---------|
|----------------------------|------------------------|
|----------------------------|------------------------|
|----------------------------|------------------------|
|----------------------------|------------------------|
|----------------------------|------------------------|


  A5    Am  G5  G   G
    PM|   PM  PM        PM
  E E E E E E E E   +E  E a Q  S S E E E
|-----------------|----------------------|
|-----------------|----------------------|
|-2-----5---7---4-|-(4)------------------|
|-2-----7---5---5-|-(5)---2s3--2s3-2-----|
|-0-0-0---0---0---|-----0------------3s2-|
|-----------------|----------------------|
|
| W                  W
|-----------------|----------------------|
|-----------------|----------------------|
|-----------------|----------------------|
|-----------------|----------------------|
|-----------------|----------------------|
|-----------------|----------------------|


                                                   D.S.S. al Coda
  A5    F5              F5  F5G5      F5   A5   G5   G5  E5   G5 G5
  Gtr I
    PM|   PM----------|   PM    PM|
  E E E E E E E E   E E E E E E E E   Q.   Q.   Q    +E  Q.   Q  Q
|-----------------|-----------------|--------------|----------------|
|-----------------|-----------------|--------------|----------------|
|-2-----5---------|-----5---5s7-----|--------------|----------------|
|-2-----3---------|-----3---3s5-----|-3----7----5--|-(5)-2----5--5--|
|-0-0-0---0-0-0-0-|-0-0---0-----0-0-|-3----7----5--|-(5)-2----5--5--|
|-----------------|-----------------|-1----5----3--|-(3)-0----3--3--|
|
| Gtr II
| W                 W                 Q.   Q.   Q    +E  Q.   Q  Q
|-----------------|-----------------|--------------|----------------|
|-----------------|-----------------|--------------|----------------|
|-----------------|-----------------|-5----9----7--|-(7)-4----7--7--|
|-----------------|-----------------|-3----7----5--|-(5)-2----5--5--|
|-----------------|-----------------|-3----7----5--|-(5)-2----5--5--|
|-----------------|-----------------|--------------|----------------|


 Outro
  &
  A5    F5              F5  F5G5      A5    Am  G5  G   G
    PM|   PM----------|   PM    PM|     PM|   PM  PM        PM
  E E E E E E E E   E E E E E E E E   E E E E E E E E   +E  E a Q  S S E E E
|-----------------|-----------------|-----------------|----------------------|
|-----------------|-----------------|-----------------|----------------------|
|-2-----5---------|-----5---5s7-----|-2-----5---7---4-|-(4)------------------|
|-2-----3---------|-----3---3s5-----|-2-----7---5---5-|-(5)---2s3--2s3-2-----|
|-0-0-0---0-0-0-0-|-0-0---0-----0-0-|-0-0-0---0---0---|-----0------------3s2-|
|-----------------|-----------------|-----------------|----------------------|
|
|   PM|   PM----------|   PM    PM|     PM|   PM  PM        PM
| E E E E E E E E   E E E E E E E E   E E E E E E E E   +E  E a Q  S S E E E
|-----------------|-----------------|-----------------|----------------------|
|-----------------|-----------------|-----------------|----------------------|
|-2-----5---------|-----5---5s7-----|-2-----5---7---4-|-(4)------------------|
|-2-----3---------|-----3---3s5-----|-2-----7---5---5-|-(5)---2s3--2s3-2-----|
|-0-0-0---0-0-0-0-|-0-0---0-----0-0-|-0-0-0---0---0---|-----0------------3s2-|
|-----------------|-----------------|-----------------|----------------------|


  A5    F5              F5  F5G5      F5   A5   G5   G5  E5   G5 G5
    PM|   PM----------|   PM    PM|
  E E E E E E E E   E E E E E E E E   Q.   Q.   Q    +E  Q.   Q  Q
|-----------------|-----------------|--------------|----------------|
|-----------------|-----------------|--------------|----------------|
|-2-----5---------|-----5---5s7-----|--------------|----------------|
|-2-----3---------|-----3---3s5-----|-3----7----5--|-(5)-2----5--5--|
|-0-0-0---0-0-0-0-|-0-0---0-----0-0-|-3----7----5--|-(5)-2----5--5--|
|-----------------|-----------------|-1----5----3--|-(3)-0----3--3--|
|
|   PM|   PM----------|   PM    PM|
| E E E E E E E E   E E E E E E E E   Q.   Q.   Q    +E  Q.   Q  Q
|-----------------|-----------------|--------------|----------------|
|-----------------|-----------------|--------------|----------------|
|-2-----5---------|-----5---5s7-----|-5----9----7--|-(7)-4----7--7--|
|-2-----3---------|-----3---3s5-----|-3----7----5--|-(5)-2----5--5--|
|-0-0-0---0-0-0-0-|-0-0---0-----0-0-|-3----7----5--|-(5)-2----5--5--|
|-----------------|-----------------|--------------|----------------|


  F5                F5          G5    A5/E
  E E E E E E E E   E E E E E E E E   Q.   E H
|-----------------|-----------------|-------------*|
|-----------------|-----------------|-------------*|
|-----------------|-----------------|-------------*|
|-3-3-3-3-3-3-3-3-|-3-3-3-3-3-3-5-5-|-7\----------*|
|-3-3-3-3-3-3-3-3-|-3-3-3-3-3-3-5-5-|-7\----------*|
|-1-1-1-1-1-1-1-1-|-1-1-1-1-1-1-3-3-|-5\----------*|
|
| E E E E E E E E   E E E E E E E E   Q.   E H
|-----------------|-----------------|-------------*|
|-----------------|-----------------|-------------*|
|-5-5-5-5-5-5-5-5-|-5-5-5-5-5-5-7-7-|-9\----------*|
|-3-3-3-3-3-3-3-3-|-3-3-3-3-3-3-5-5-|-7\----------*|
|-3-3-3-3-3-3-3-3-|-3-3-3-3-3-3-5-5-|-7-----------*|
|-----------------|-----------------|-------------*|



Duration Legend
---------------
W - whole; H - half; Q - quarter; E - 8th; S - 16th; T - 32nd; X - 64th; a - acciaccatura
+ - note tied to previous; . - note dotted; .. - note double dotted
Uncapitalized letters represent notes that are staccato (1/2 duration)
Irregular groupings are notated above the duration line
Duration letters will always appear directly above the note/fret number it represents the
duration for.  Duration letters with no fret number below them represent rests.  Multi-
bar rests are notated in the form Wxn, where n is the number of bars to rest for.  Low
melody durations appear below the staff

Tablature Legend
----------------
 h   - hammer-on
 p   - pull-off
 b   - bend
 pb  - pre-bend
 r   - bend release (if no number after the r, then release immediately)
 /\  - slide into or out of (from/to "nowhere")
 s   - legato slide
 S   - shift slide
 - natural harmonic
[n]  - artificial harmonic
n(n) - tapped harmonic
 ~   - vibrato
 tr  - trill
 T   - tap
 TP  - trem. picking
 PM  - palm muting
\n/  - tremolo bar dip; n = amount to dip
 \n  - tremolo bar down
 n/  - tremolo bar up
/n\  - tremolo bar inverted dip
 =   - hold bend; also acts as connecting device for hammers/pulls
 <> - volume swell (louder/softer)
 x   - on rhythm slash represents muted slash
 o   - on rhythm slash represents single note slash

Misc Legend
-----------
 |  - bar
||  - double bar
||o - repeat start
o|| - repeat end
*|  - double bar (ending)
 :  - bar (freetime)
 $  - Segno
 &  - Coda
Tempo markers -  = BPM(8/16=s8/s16), where s8 = swing 8ths, s16 = swing 16ths

Tap to rate this tab
# A B C D E F G H I J K L M N O P Q R S T U V W X Y Z