Song name
# A B C D E F G H I J K L M N O P Q R S T U V W X Y Z

Nocturnal Rites - Egyptica tab

Nocturnal Rites-Egyptica
Tabbed by: Lucridis
Tuning:Half step down
(No Solo, Sorry)

LEAD INTRO
|----------------------|---------------|---------------------|---------------------------|
|----------------------|---------------|---------------------|---------------------------|
|----------------------|---------------|---------------------|---------------------------|
|-7-6h7p6-4-6-4h6p4-3--|-9-7h9p7-6-7-6-|-7-6h7p6-4-6-4h6p4-3-|-11-9h11p9-7-9-7h9p7-6-4-3-|
|----------------------|---------------|---------------------|---------------------------|
|----------------------|---------------|---------------------|---------------------------|

|----------------------|---------------|--------------------------------------|
|----------------------|---------------|--------------------------------------|
|----------------------|---------------|--------------------------------------|
|-7-6h7p6-4-6-4h6p4-3--|-9-7h9p7-6-7-6-|-11b12r11-9-7-6-4-3-3b4r3-------------|
|----------------------|---------------|--------------------------5-4h5p4-2-0-|
|----------------------|---------------|--------------------------------------|

LEAD MAIN RIFF
|-----------------------------------|---------------------------------------|
|-----------------------------------|---------------------------------------|
|-----------------------------------|---------------------------------------|
|-4-3h4p3---3-------3h4p3-----3-----|-7-6h7p6-4-6-4h6p4-3-4-7-6h7p6-4-6-4-3-|
|---------5---5-4-5-------4-5---5-4-|---------------------------------------|
|-----------------------------------|---------------------------------------|

|--------------------------------------------------------------------------|
|--------------------------------------------------------------------------|
|--------------------------------------------------------------------------|
|-4-3h4p3---3-------3h4p3-----3-----4-6-7-6-7-9-7-9-9b11r9-7-9-6-----------|
|---------5---5-4-5-------4-5---5-4----------------------------------------|
|--------------------------------------------------------------------------|

|-----------------------------------|---------------------------------------|
|-----------------------------------|---------------------------------------|
|-----------------------------------|---------------------------------------|
|-4-3h4p3---3-------3h4p3-----3-----|-7-6h7p6-4-6-4h6p4-3-4-7-6h7p6-4-6-4-3-|
|---------5---5-4-5-------4-5---5-4-|---------------------------------------|
|-----------------------------------|---------------------------------------|

|-----------------------------------------------------------------------------|
|-----------------------------------------------------------------------------|
|-----------------------------------------------------------------------------|
|-4-3h4p3---3-------3h4p3-----3-----4-6-7-6-7-9-7-9-9b11r9-7-9b11~~~----------|
|---------5---5-4-5-------4-5---5-4-------------------------------------------|
|-----------------------------------------------------------------------------|

LEAD BUILD UP
|----------9-9-9---7---5-|
|-9-9-9-10---------------|
|------------------------|
|------------------------|
|------------------------|
|------------------------|

RHYTHM INTRO
|-----------------|-----------------|
|-----------------|-----------------|
|-----------------|-----------------|
|-------------4-3-|---------4-3-----|
|-4---5-2-4---4-3-|-4---5-2-4-3-5-2-|
|-4---5-2-4-------|-4---5-2-----5-2-|

RHYTHM MAIN RIFF
|------------------------|------------------|
|------------------------|------------------|
|------------------------|------------------|
|------------------------|------------------|
|-2-4-4-4--2-4-4-4-2-4-5-|-2-4-4-4--2-4-4-2-|
|-2-4-4-4--2-4-4-4-2-4-5-|-2-4-4-4--2-4-4-2-|

|------------------------|-----------------|
|------------------------|-----------------|
|------------------------|-----------------|
|------------------------|---4---3---------|
|-2-4-4-4--2-4-4-4-2-4-5-|-4-4-4-3-4-5-5-2-|
|-2-4-4-4--2-4-4-4-2-4-5-|-4---4---4-5-5-2-|

|------------------------|------------------|
|------------------------|------------------|
|------------------------|------------------|
|------------------------|------------------|
|-2-4-4-4--2-4-4-4-2-4-5-|-2-4-4-4--2-4-4-2-|
|-2-4-4-4--2-4-4-4-2-4-5-|-2-4-4-4--2-4-4-2-|

|------------------------|-----------------|
|------------------------|-----------------|
|------------------------|-----------------|
|------------------------|---4---3---------|
|-2-4-4-4--2-4-4-4-2-4-5-|-4-4-4-3-4-5-5-2-|
|-2-4-4-4--2-4-4-4-2-4-5-|-4---4---4-5-5-2-|

RHYTHM BUILD UP
|---------------------------------|
|---------------------------------|
|---------------------------------|
|---------------------4-3---------|
|-4~~-4~~-5-2-4~~-4~~-4-3-5-4-2-2-|
|-4~~-4~~-5-2-4~~-4~~-----5-4-2-2-|

VERSE (NO LEAD)
|-------------------------|-----------------------|
|-------------------------|-----------------------|
|-------------------------|-----------------------|
|-----------------4-3-----|-----------------------|
|-4---4---5-2-4---4-3-5-2-|-4---4---5-2-4-5--2--4-|
|-4---4---5-2-4-------5-2-|-4---4---5-2-4-5--2--4-|

RHYTHM CHORUS
|------------|------------|------------|--------|
|------------|------------|------------|--------|
|------------|------------|------------|--------|
|-------4--2-|------------|----2-----4-|--------|
|-5--4--4--2-|-5--2--4--4-|-5--2--4--4-|-5--5~~-|
|-5--4-------|-5--2--4--4-|-5-----4----|-5--5~~-|

LEAD CHORUS (Near the end)
|-------------------------------------|
|-------------------------------------|
|-----------------6-7-6h7p6-4---------|
|---------3-4-3-4-------------7-6-4-3-|
|-4-5-4-5-----------------------------|
|-------------------------------------|
Tap to rate this tab
 
# A B C D E F G H I J K L M N O P Q R S T U V W X Y Z