Guitaretab - guitar tabs
Song name
# A B C D E F G H I J K L M N O P Q R S T U V W X Y Z

Nocturnal Rites - New World Messiah tab

Not shure but its kinda fun to play.

Intro
e|-------------------------------------------------------------|
B|-------------------------------------------------------------|
G|-------------------------------------------------------------|
D|------------8-6-8-------8-6-8-6-----------8-6-8-9-8-6--------|
A|--6-8-9-8-6-------6-8-9---------6-8-9-8-6-------------9-8--9-|
E|-------------------------------------------------------------|

Riff A
e|------------------------------------------------------------|
B|------------------------------------------------------------|
G|------------------------------------------------------------|
D|-8-8-8--8-8-8------8-8-8--8-8-8-----------------------------|
A|-6-6-6--6-6-6-4-6--6-6-6--6-6-6-4-6^------------------------|
E|------------------------------------------------------------|

Riff B
e|-------------------------------------------------------------|
B|-------------------------------------------------------------|
G|-------------------------------------------------------------|
D|--8---9--8--6--8--9----------------------6-8--6--------------|
A|--6---6--6--4--6--6-6--8-9-9-9-9-9-9-9-9-4-6--4--------------|
E|--------------------4--6-7-7-7-7-7-7-7-7---------------------|

And then its kind a messed up so i dont hear exactly but always the chord as before but 
something lilke this

riff c
e|-------------------------------------------------------------|
B|-------------------------------------------------------------|
G|-------------------------------------------------------------|
D|-------------------------------------------------------------|
A|-8-8-8-8-8-8-8-8-9-9-9-9-9-9-9-9-----------------------------|
E|-6-6-6-6-6-6-6-6-7-7-7-7-7-7-7-7--7-6-6-7-6-6-7-6-6-7^-------|
[ Tab from: http://www.guitaretab.com/n/nocturnal-rites/78317.html ]
Reff:
e|-------------------------------------------------------------|
B|-------------------------------------------------------------|
G|-------------------------------------------------------------|
D|-8---8---6---6---8---8---6---6-----------8-6-8-----8-6-8-6---|
A|-6---6---4---4---6---6---4---4-6-8-9-8-6------6-8-9---------9|
E|-------------------------------------------------------------|

Then play riff b  riff c reff

and then i dont know but mute down on Eb

e|------------------------------------------------|
B|------------------------------------------------|
G|------------------------------------------------|
D|------------------------------------------------|
A|--x6-x6-x6-x6-x6-x6-----------------------------|
E|------------------------------------------------|
Solo (have no time to do it really good,btu it sounds ok)
e|------------------------------------------------|
B|------------------------------------------------|
G|------------------------------------------------|
D|--------14^-12-14--14--14--14--14--14--14^------|
A|-14^-14----------12--12--12--12--12--12---------|
E|------------------------------------------------|


e|------------15-14-12-15-------------------------|
B|-15-14-12-15------------14^-14-15^--------------|
G|------------------------------------------------|
D|------------------------------------------------|
A|------------------------------------------------|
E|------------------------------------------------|

e|-----------------------------------------------------|
B|-----------------------------------------------------|
G|-----------------------------------------------------|
D|-----------------------------------------6-6-8-6-8---|
A|--6-8-9-8-6-8-9-6--6-8-9-8-6-8-9-6-8-9-6-------------|
E|-----------------------------------------------------|

play end of riff b an whole c anbd reff
outtro/intro
Related for New World Messiah tab
New World Messiah chords by Nocturnal Rites