Song name
# A B C D E F G H I J K L M N O P Q R S T U V W X Y Z

Nocturnal Rites - The Flame Will Never Die tab

The Flame Will Never Die
Nocturnal Rites
Track number 8 from New World Messiah (?)
Tabbed By: Mariano Arnaiz
Anything to : marianoarnaiz@hotmail.com
Tunning: 1/2 step down (EbAbDbGbBbeb)
 
Intro
eb||----------------------------|----------------------------|----------------------------|--------|| 
Bb||----------------------------|----------------------------|----------------------------|--------|| 
Gb||----------------------------|----------------------------|----------------------------|--5--4--|| 
Db||---------2--------10-----9--|---------2--------7------10-|---------2--------10-----9--|--5--4--|| 
Ab||---------2--------7------7--|---------2--------7------7--|---------2--------7------7--|--3--2--|| 
Eb||--0-0-0-----0-0-0-----0-----|--0-0-0-----0-0-0-----0-----|--0-0-0-----0-0-0-----0-----|--3--2--|| 

eb||----------------------------|----------------------------|----------------------------|------------------------|| 
Bb||----------------------------|----------------------------|----------------------------|------------------------|| 
Gb||----------------------------|----------------------------|----------------------------|--5---------------------|| 
Db||---------2--------10-----9--|---------2--------7------10-|---------2--------10-----9--|--5-------3------3---2--|| 
Ab||---------2--------7------7--|---------2--------7------7--|---------2--------7------7--|--3-------3------3---2--|| 
Eb||--0-0-0-----0-0-0-----0-----|--0-0-0-----0-0-0-----0-----|--0-0-0-----0-0-0-----0-----|--3---0-0----0-0-----0--|| 

Verse 1
eb||-----|-----|-----|-----|-----|-----|| 
Bb||--8--|--5--|--4--|--8--|--5--|--7--|| 
Gb||--9--|--5--|--4--|--9--|--5--|--7--|| x2
Db||--9--|--5--|--4--|--9--|--5--|--7--|| 
Ab||-----|-----|-----|-----|-----|-----|| 
Eb||-----|-----|-----|-----|-----|-----|| 

Pre-Chorus
eb||----------------|------------------------|| 
Bb||----------------|------------------------|| 
Gb||----5----5--5---|---5-----5--------------|| 
Db||----5----5--5---|---5-----5--------------|| 
Ab||----3----3--3---|---3-----3---3-3-3-3-3--|| 
Eb||----3----3--3---|---3-----3---x-x-x-x-x--|| 

Chorus
eb||-----|-----|-----|-----|-----|-----|| 
Bb||-----|-----|-----|-----|-----|-----|| 
Gb||-----|--7--|--4--|-----|--7--|--5--|| 
Db||--2--|--7--|--4--|--2--|--7--|--5--|| 
Ab||--2--|--5--|--2--|--2--|--5--|--3--|| 
Eb||--0--|-----|-----|--0--|-----|-----|| 

Bridge
eb||----------------------------|----------------------------|----------------------------|------------------------|| 
Bb||----------------------------|----------------------------|----------------------------|------------------------|| 
Gb||----------------------------|----------------------------|----------------------------|--5---------------------|| 
Db||---------2--------10-----9--|---------2--------7------10-|---------2--------10-----9--|--5-------3------3---2--|| 
Ab||---------2--------7------7--|---------2--------7------7--|---------2--------7------7--|--3-------3------3---2--|| 
Eb||--0-0-0-----0-0-0-----0-----|--0-0-0-----0-0-0-----0-----|--0-0-0-----0-0-0-----0-----|--3---0-0----0-0-----0--|| 

Verse 2
eb||-----|-----|-----|-----|-----|-----|| 
Bb||--8--|--5--|--4--|--8--|--5--|--7--|| 
Gb||--9--|--5--|--4--|--9--|--5--|--7--|| 
Db||--9--|--5--|--4--|--9--|--5--|--7--|| 
Ab||-----|-----|-----|-----|-----|-----|| 
Eb||-----|-----|-----|-----|-----|-----|| 

Pre-Chorus
eb||----------------|------------------------|| 
Bb||----------------|------------------------|| 
Gb||----5----5--5---|---5-----5--------------|| 
Db||----5----5--5---|---5-----5--------------|| 
Ab||----3----3--3---|---3-----3---3-3-3-3-3--|| 
Eb||----3----3--3---|---3-----3---x-x-x-x-x--|| 

Chorus
eb||-----|-----|-----|-----|-----|-----|| 
Bb||-----|-----|-----|-----|-----|-----|| 
Gb||-----|--7--|--4--|-----|--7--|--5--|| 
Db||--2--|--7--|--4--|--2--|--7--|--5--|| 
Ab||--2--|--5--|--2--|--2--|--5--|--3--|| 
Eb||--0--|-----|-----|--0--|-----|-----|| 

Interlude
eb||----------------------------|----------------------------|| 
Bb||----------------------------|----------------------------|| 
Gb||----------------------------|----------------------------|| 
Db||---------2--------10-----9--|---------2--------7------10-|| 
Ab||---------2--------7------7--|---------2--------7------7--|| 
Eb||--0-0-0-----0-0-0-----0-----|--0-0-0-----0-0-0-----0-----|| 

Guitar solo
eb||-----------------------------------|----------------------------------------|--------------------------|| 
Bb||-----------------------------------|----------------------------------------|--------------------------|| 
Gb||-----------------------------------|----------------------------------------|-------2------------------|| 
Db||------6----------------------------|------6--------4----2------------6------|--2---------6----4h6------|| 
Ab||--4-------6----2----7----6----4h6--|--4-------6-------------6----4-------6--|-----------------------4--|| 
Eb||-----------------------------------|----------------------------------------|--------------------------|| 

eb||------------------------|| 
Bb||------------------------|| 
Gb||--6---8---9---11.bFull--|| 
Db||------------------------|| 
Ab||------------------------|| 
Eb||------------------------|| 

Chorus
eb||-----|-----|-----|-----|-----|-----|----------------|| 
Bb||-----|-----|-----|-----|-----|-----|----------------|| 
Gb||-----|--7--|--4--|-----|--7--|--5--|----5----5--5---|| 
Db||--2--|--7--|--4--|--2--|--7--|--5--|----5----5--5---|| 
Ab||--2--|--5--|--2--|--2--|--5--|--3--|----3----3--3---|| 
Eb||--0--|-----|-----|--0--|-----|-----|----3----3--3---||

eb||-----|-----|-----|-----|-----|-----|----------------|| 
Bb||-----|-----|-----|-----|-----|-----|----------------|| 
Gb||-----|--7--|--4--|-----|--7--|--5--|----5----5--5---|| 
Db||--2--|--7--|--4--|--2--|--7--|--5--|----5----5--5---|| 
Ab||--2--|--5--|--2--|--2--|--5--|--3--|----3----3--3---|| 
Eb||--0--|-----|-----|--0--|-----|-----|----3----3--3---||

Outro

eb||----------------------------|----------------------------|----------------------------|--------|| 
Bb||----------------------------|----------------------------|----------------------------|--------|| 
Gb||----------------------------|----------------------------|----------------------------|--5--4--|| 
Db||---------2--------10-----9--|---------2--------7------10-|---------2--------10-----9--|--5--4--|| 
Ab||---------2--------7------7--|---------2--------7------7--|---------2--------7------7--|--3--2--|| 
Eb||--0-0-0-----0-0-0-----0-----|--0-0-0-----0-0-0-----0-----|--0-0-0-----0-0-0-----0-----|--3--2--|| 

eb||----------------------------|----------------------------|----------------------------|------------------------|| 
Bb||----------------------------|----------------------------|----------------------------|------------------------|| 
Gb||----------------------------|----------------------------|----------------------------|--5---------------------|| 
Db||---------2--------10-----9--|---------2--------7------10-|---------2--------10-----9--|--5-------3------3---2--|| 
Ab||---------2--------7------7--|---------2--------7------7--|---------2--------7------7--|--3-------3------3---2--|| 
Eb||--0-0-0-----0-0-0-----0-----|--0-0-0-----0-0-0-----0-----|--0-0-0-----0-0-0-----0-----|--3---0-0----0-0-----0--|| 
Tap to rate this tab
# A B C D E F G H I J K L M N O P Q R S T U V W X Y Z