Song name
# A B C D E F G H I J K L M N O P Q R S T U V W X Y Z

Nocturne - Shallow tab

-------------------------------------------------------------------------------
			     Nocturne - "Shallow"
-------------------------------------------------------------------------------
Tabbed by:DecayingSinner
Email:Decayingsinner@verizon.net

Tuning:Drop C

Intro / Chorus
D|----------------------------|
A|----------------------------|
F|----------------------------|
C|-2-2---12-12---7-7-7---5-5--|
G|-2-2---12-12---7-7-7---5-5--|
C|-0-0---10-10---5-5-5---3-3--|

Guit. 2
D|---------------------------------------------------------------------------------------|
A|---------------------------------------------------------------------------------------|
F|-12^12---12^12-------------------------------------------------------------------------|
C|---------------10-9--------------------------------------------------------------------|
G|---------------------------------------------------------------------------------------|
C|---------------------------------------------------------------------------------------|

Verse
D|---------------------------------------------------------------------------------|
A|---------------------------------------------------------------------------------|
F|---------------------------------------------------------------------------------|
C|-2-2-2-2-------------------------------------------------------------------------|
G|-2-2-2-2-------------------------------------------------------------------------|
C|-0-0-0-0-------------------------------------------------------------------------|

D|--------------------------------------------------------------------------------------|
A|--------------------------------------------------------------------------------------|
F|--------------------------------------------------------------------------------------|
C|-5-------------9---11/12--14----------------------------------------------------------|
G|-5-------------9---11/12--14----------------------------------------------------------|
C|-3-------------7----9/10--12----------------------------------------------------------|
  "I'm here to let you down, I'm here to disappoint"

www.Nocturne.cc

| /  slide up
| \  slide down
| h  hammer-on
| p  pull-off
| ~  vibrato
| +  harmonic
| x  Mute note
===============================================================================
Tap to rate this tab
 
# A B C D E F G H I J K L M N O P Q R S T U V W X Y Z