Song name
# A B C D E F G H I J K L M N O P Q R S T U V W X Y Z

Nocturnus - Possess The Priest tab

Help us improve GuitareTab! Take a short survey!
Noctunus
Possess The Priest
Transcribed by:Lord Agony at (cfarmer@mindspring.com)

/ \-Slide
Pm....-Palmute
( )-Let ring

Intro:
------------------------------------------------------------|
------------------------------------------------------------|
------------------------------------------------------------|
------------------------------------------------------/15b--|
--2----5----2-(2)--2----5----22---2----5------2-(2)---------|
--0-00-3-00-0-(0)--0-00-3-00-00---0-00-3--00--0-(0)---------|
pm  ..   ..          ..   ..        ..    ..

"When slideing doen to the 15 0r 19th fret it is best of you 
use you whammy bar and fucking get crazy, It sounds best if you
 have a locking tremelo and  bent it up and down."

------------------------------------------------------------|
------------------------------------------------------------|
------------------------------------------------------------|
----------------------------------------------------/19b----|
---2----5----2-(2)--2----5-----22--2----5----2-(2)----------|
---0-00-3-00-0-(0)--0-00-3-00--00--0-00-3-00-0-(0)----------|
pm   ..   ..          ..   ..        ..   ..
(Repeat Following riffs with out slidind down) then do Riff 1)

Riff:1
-------------------------------------------------------------|
-------------------------------------------------------------|
-------------------------------------------------------------|
-------------6h7p6---------4h5p4--------2h3p5----------2-1---|
--/7 -000000-------000000--------000000---------0-1-2--------|
-------------------------------------------------------------|
pm   .......       .......       ......         ...........


"Now speed pick the open notes and play fast"
Related for Possess The Priest tab