Song name
# A B C D E F G H I J K L M N O P Q R S T U V W X Y Z

Nodes Of Ranvier - Renewal tab

This is the intro to there album "The Years to Come"
This tabs is 100% correct please rate

|---------------------------------------------------------------------------|
|---------------------------------------------------------------------------|
|------3-2------------------------------------------------------------------|
|------------------3-2------------------------------------------------------|
|---------------------------------------------------------------------------|
|-0----------0h3---------0-3-5----------------------------------------------|
repeat this 4 times ^

|---------------------------------------------------------------------------|
|---------------------------------------------------------------------------|
|------3-2------------------------------------------------------------------|
|------------------3-2------------------------------------------------------|
|---------------------------------------------------------------------------|
|-0----------0h3---------0-3-5----------------------------------------------|
repeat this 4 times ^ but this time the drumms come in and rythm guitar

|---------------------------------------------------------------------------|
|---------------------------------------------------------------------------|
|---------------------------------------------------------------------------|
|---------------------------------------------------------------------------|
|-0----------0h3--------0-3-5-----------------------------------------------|
|-0----------0h3--------0-3-5-----------------------------------------------|
repeat 4 times ^ rythm

|---------------------------------------------------------------------------|
|---------------------------------------------------------------------------|
|------3*-2*----------------------------------------------------------------|
|------------------3*-2*----------------------------------------------------|
|---------------------------------------------------------------------------|
|-0----------0h3---------0-3-5----------------------------------------------|
repeat 4 times ^

|---------------------------------------------------------------------------|
|---------------------------------------------------------------------------|
|---------------------------------------------------------------------------|
|---------------------------------------------------------------------------|
|-0----------0h3--------0-3-5-----------------------------------------------|
|-0----------0h3--------0-3-5-----------------------------------------------|
repeat 4 times ^ rythm
|---------------------------------------------------------------------------|
|---------------------------------------------------------------------------|
|------3*-2*----------------------------------------------------------------|
|------------------3*-2*----------------------------------------------------|
|---------------------------------------------------------------------------|
|-0----------0h3------------------------------------------------------------|

Behind this the rythm guitar plays a palmuting riff its basically just slow gallops

|---------------------------------------------------------------------------|
|---------------------------------------------------------------------------|
|--3-2------------3-2-------------------------------------------------------|
|-------------------------------3-2----------3-2----------------------------|
|-0---0-0-0-0---0----0-0-0-0--3----3-3-3-3--3---0-3-3-5---------------------|
|-0---0-0-0-0---0----0-0-0-0--3----3-3-3-3--3---0-3-3-5---------------------|
      .   .            .   .       .   .          .

Thts wat i got so for there may be a few mistaces but i belive thats good for right now
Tap to rate this tab
 
# A B C D E F G H I J K L M N O P Q R S T U V W X Y Z