Song name
# A B C D E F G H I J K L M N O P Q R S T U V W X Y Z

Nodes Of Ranvier - Number Four tab

-------------------------------------------------------------------------------
			     NUMBER FOUR - Nodes Of Ranvier
-------------------------------------------------------------------------------
Tabbed by: Herb Portillo
Email: herbert_portillo@umail.ucsb.edu

Tuning: Drop D

(0:00 - 0:35)

e|----------------------------------|----------------------------------------|
B|----------------------------------|----------------------------------------|
G|---------5-----------5-----7--5---|----------------------------------------|
D|---2-----5-----2-----5-----7--5---| x2, end with ---2----------------------|
A|---2-----3-----2-----3-----5--3---|-----------------2----------------------|
D|---2-----5-----2-----5--------5---|-----------------2----------------------|

(0:35 - 1:05)

e|-------------|-------------------------------------------------------------|
B|-------------|-------------------------------------------------------------|
G|---5---------|-------------5-----------------------------------------------|
D|---5-----2---| x3, then ---5--- a couple of times, figure out timing ------|
A|---3-----2---|-------------3-----------------------------------------------|
D|---5-----2---|-------------5-----------------------------------------------|

(1:05 - 1:46)

Guitar 1
e|----------------------------------------------------------------|----------|
B|----------------------------------------------------------------|----------|
G|----------------------------------------------------------------|----------|
D|---/9---7---5---4---5---4------/9---7---5---4---5---4---0---2---|- x3------|
A|----------------------------------------------------------------|----------|
D|----------------------------------------------------------------|----------|

e|---------------------------------------------------------------------------|
B|---------------------------------------------------------------------------|
G|---------------------------------------------------------------------------|
D|---/9---7---5---4---5---4-----/9---7---5---4---5---4---0---4---5---4---2---|
A|---------------------------------------------------------------------------|
D|---------------------------------------------------------------------------|

Guitar 2
e|-------------|-------------------------------------------------------------|
B|-------------|-------------------------------------------------------------|
G|---------5---|---------------------------------5---------------------------|
D|---2-----5---| x4, then let ring---2-----2-----5---------------------------|
A|---2-----3---|---------------------2-----2-----3---------------------------|
D|---2-----5---|---------------------2-----2-----5---------------------------|

(2:25 - 2:31)

e|---------------------------------------------------------------------------|
B|---------------------------------------------------------------------------|
G|---------------------------------------------------------------------------|
D|---9-----9-----0-----9-----12\---------------------------------------------|
A|---9-----9-----0-----9-----12\---------------------------------------------|
D|---9-----9-----0-----9-----12\---------------------------------------------|
     X

(2:31 - end )

e|---------------------------------------------------------------------------|
B|---------------------------------------------------------------------------|
G|---------------------------------------------------------------------------|
D|---0-----7/-----12----11----9----------------------------------------------|
A|---0-----7/-----9-----9-----9----------------------------------------------|
D|---0-----7/-----9-----9-----9----------------------------------------------|

(2:57 - end )

Guitar 2 comes in
e|---14-----12-----10--------------------------------------------------------|
B|---------------------------------------------------------------------------|
G|---------------------------------------------------------------------------|
D|---------------------------------------------------------------------------|
A|---------------------------------------------------------------------------|
D|---------------------------------------------------------------------------|


| /  slide up
| \  slide down
| h  hammer-on
| p  pull-off
| ~  vibrato
| +  harmonic
| x  Mute note
===============================================================================
Tap to rate this tab
# A B C D E F G H I J K L M N O P Q R S T U V W X Y Z