Song name
# A B C D E F G H I J K L M N O P Q R S T U V W X Y Z

Nodes Of Ranvier - Glass Half Nothing tab

Nodes Of Ranvier - Glass Half Nothing

Drop-D

This part is insanely fast
e|--------------------------------------|
B|--------------------------------------|
G|--------------------------------------|
D|--8-8-8-8-5---7-7-7-7-3---2-3-2-3-0---|
A|--8-8-8-8-5---7-7-7-7-3---2-3-2-3-0---|
D|--8-8-8-8-5---7-7-7-7-3---2-3-2-3-0---|
PM  . . . .     . . . .     . . . . 


Try to Pinch the non-open notes in this riff and other parts in this song too for a better sound.
e|--------------------------------------------|
B|--------------------------------------------|
G|--------------------------------------------|
D|------------------------------------2-3-5---|
A|-----5-----7-----8---3---------5----2-3-5---|
D|-0-0---7-0---0-7---0---5-0-0-0---7--2-3-5---|
PM . .     .   .     .     . . .      . . .


e|--------------------------------------------|
B|--------------------------------------------|
G|-----7-----9----10---5---------7------------|
D|-------7-----7---------5---------7--2-3-5---|
A|------------------------------------2-3-5---|
D|-0-0---------------------0-0-0------2-3-5---|
PM . .                     . . .      . . .


e|---------------------------|
B|---------------------------|
G|---------------------------|
D|--0--0-0-0-0-0-0-0-2-3-5---|
A|--0--0-0-0-0-0-0-0-2-3-5---|
D|--0--0-0-0-0-0-0-0-2-3-5---|
PM     . . . . . . . . . .


Chorus Riff (Shadows have been cast on us...)
e|-----------------------------------------------|
B|-----------------------------------------------|
G|-----------------------------------------------|
D|-0-2-3-8-8-8-8-8-8-8-8-0-2-3-5-5-5-5-5-5-5-5---|
A|-0-2-3-8-8-8-8-8-8-8-8-0-2-3-5-5-5-5-5-5-5-5---|
D|-0-2-3-8-8-8-8-8-8-8-8-0-2-3-5-5-5-5-5-5-5-5---|


e|-------------------------------------------------|
B|-------------------------------------------------|
G|-------------------------------------------------|
D|-0-2-3-8-8-8-8-8-8-10-10-0-2-3-5-5-5-5-5-5-5-5---|
A|-0-2-3-8-8-8-8-8-8-10-10-0-2-3-5-5-5-5-5-5-5-5---|
D|-0-2-3-8-8-8-8-8-8-10-10-0-2-3-5-5-5-5-5-5-5-5---|


Little Riff after chorus
e|----------------|
B|----------------|
G|----------------|
D|----------------|
A|--10-8-7-8-7-5--|
D|----------------|

2nd Verse starts like this
e|-------------------------------------------|
B|-------------------------------------------|
G|-------------------------------------------|
D|--------8-----------7--0-3--0-5--0-1-1-0---|
A|--8-8p7-8--10-8-7-5-7--0-3--0-5--0-1-1-0---|
D|--------8-----------7--0-3--0-5--0-1-1-0---|
PM                       .    .    .   

e|--------------------------------------------------------|
B|--------------------------------------------------------|
G|-14-14-14-14--15-15-15-15--12-12------------------------|
D|----------------------------------0-10--0-12--0-8-8-0---|
A|-12-12-12-12--13-13-13-13--10-10--0-10--0-12--0-8-8-0---|
D|----------------------------------0-10--0-12--0-8-8-0---|


Interlude part
e|------------------------------------------------------|
B|------------------------------------------------------|
G|------------------------------------------------------|
D|-8------------5------------3--------------------------|
A|-8-5-7-8-7-5--5-5-7-8-7-5--3-5-7-8-7-5------7-----8---|
D|-8------------5------------3------------0-0---0-0-----|
PM                                        . .   . .
Tap to rate this tab
# A B C D E F G H I J K L M N O P Q R S T U V W X Y Z