Guitaretab - guitar tabs
Song name
# A B C D E F G H I J K L M N O P Q R S T U V W X Y Z

Noel Cabangon - Kanlungan tab

-------------------------------------------------------------------------------
			     kanlungan(solo) - noel cabangon
-------------------------------------------------------------------------------
Tabbed by:ganjamel
Email:ganjah_69@yahoo.com

Tuning:standard (EADGBE)
[ Tab from: http://www.guitaretab.com/n/noel-cabangon/130564.html ]
e|-----------------------------------------------7---------------------9-11--|
B|-12b14------12------------------5-4-4h5-7-7h9----7/9-----12b14-12-12-------|
G|-------11------9--8--6------4h6--------------------------------------------|
D|---------------------------------------------------------------------------|
A|---------------------------------------------------------------------------|
E|---------------------------------------------------------------------------|

e|-11/12--12p9--------------------------------------|
B|-------------12-12/14-----------------------------|
G|------------------------------9----9h11-9------9--|
D|-------------------------9h11---11--------9h11----|
A|--------------------------------------------------|
E|--------------------------------------------------|



| /  slide up     b  bend
| \  slide down
| h  hammer-on
| p  pull-off
| ~  vibrato
| +  harmonic
| x  Mute note
===============================================================================
Related for Kanlungan tab
Kanlungan chords by Noel Cabangon