Song name
# A B C D E F G H I J K L M N O P Q R S T U V W X Y Z

Noel Cabangon - Kahit Maputi Na Ang Buhok Ko chords

Highlighted       Show chord diagrams
-----------------------------------------------------------


An awsome revival by Philippines very own Noel Cabangon. I

found a tutorial at youtube on how to play the song. I

tabbed the whole song so that I won't be loading the videos

over and over again. (F*ck my net speed =.=) This is not

100% accurate, but it sounds great.

Here's the link for the youtube video I've used as reference

for this tab. This is part one.

(Part 1)
http://www.youtube.com/watch?v=VeoVl5FmSaA
(Part 2)
http://www.youtube.com/watch?v=iSTm0KSWVVA
(Part 3)
http://www.youtube.com/watch?v=goNpyQ9rETw

As said on the video, Noel randomly plucks strings while

playing. Normally starts with a bass (6th string or the 5th

string, depending on the chord) Just refer to the

video for further information on how to play the song.

Well, enough with the talk, here it is. Enjoy :)


-----------------------------------------------------------

INTRO:

-----------5------7-7h9-7--5-7-5--|-----------5------7-|
-9---------5-6/8--7-7------5------|-9---------5-6/8--7-|
-9--------------------------------|-9------------------|
----9-(tap)-----------------------|----9-(tap)---------|
----------------------------------|--------------------|
-0---------0---------------0------|-0---------0--------|




VERSE 1:
                     E
Kung tayo ay matanda na

Abm        Asus2        B9
Sana'y 'di tayo magbago

E          Abm
Kailanman, nasaan ma'y

Asus2               B9
Ito ang pangarap ko



CHORUS 1:
          Abm        AbDom7            C#m       E7
Makuha mo pa kayang ako'y hagkan at yakapin, hmm...

Asus2       B9        Abm       E7
Hanggang pagtanda natin

     Asus2               B9         Abm       E7
Nagtatanong lang sa'yo ako pa kaya'y ibigin mo

      F#m Abm A B9
Kahit maputi na ang buhok ko



-----------5------7-7h9-7--5-7-5--|-----------5------7-|
-9---------5-6/8--7-7------5------|-9---------5-6/8--7-|
-9--------------------------------|-9------------------|
----9-(tap)-----------------------|----9-(tap)---------|
----------------------------------|--------------------|
-0---------0---------------0------|-0---------0--------|



VERSE 2:
             E         Abm
Pagdating ng araw ang 'yong buhok

   Asus2        B9
Ay puputi na rin

E            Abm
Sabay tayong mangangarap

    Asus2         B9
Ng nakaraan sa'tin




CHORUS 2:
       Abm    AbDom7       C#m      E7
Ang nakalipas ay ibabalik natin, hmmm...

Asus2     B9      Abm      E7
papaalala ko sa'yo

     Asus2               B9         Abm       E7
Ang aking pangako na'ng pag-ibig ko'y lagi sa'yo

      F#m Abm A B9       BDom7 C#Dom7
Kahit maputi na ang buhok ko....Ohhh


(The La-lalalala-lala part.xD)

F#   Bbm   Bsus2  C#9

Bbm  BbDom7 D#m   F#Dom7



-----------------------------------------------------------
(*Before Chorus 2.2*)
F#   Bbm   Bsus2  C#9

Chorus 2.2 (The lyrics and chords here are just the

same as Chorus 2, only that the chords are tuned half step

up)
-----------------------------------------------------------



CHORUS 2
   Bbm      BbDom7         D#m   F#7
Ang nakalipas ay ibabalik natin, hmmm...

Bsus2     C#9       Bbm      F7
papaalala ko sa'yo

     Bsus2               C#9         Bbm       F7
Ang aking pangako na'ng pag-ibig ko'y lagi sa'yo

      Abm Bbm B C#9
Kahit maputi na ang buhok.

This is how I end the song

(Intro + E chord at the end)

-----------5------7-7h9-7--5-7-5--|-----------5------7-|
-9---------5-6/8--7-7------5------|-9---------5-6/8--7-|
-9--------------------------------|-9------------------| E
----9-(tap)-----------------------|----9-(tap)---------|
----------------------------------|--------------------|
-0---------0---------------0------|-0---------0--------|
Tap to rate this tab
# A B C D E F G H I J K L M N O P Q R S T U V W X Y Z