Song name
# A B C D E F G H I J K L M N O P Q R S T U V W X Y Z

Noel Gallagher - Setting Sun tab

. - palm mute
/ - slide

Intro x1
D|-------0--------------|
A|-------0--------------|
F|-7/9---1--------------|
C|-7/9---2--------------|
G|-5/7---2---Pickslide--|
D|-------0--------------|


Verse x1
D|----------------|
A|----------------|
F|----------------|
C|-6-2-5-2-6-5-2--|
G|-6-2-5-2-6-5-2--|
D|-4-0-3-0-4-3-0--|

D|-----------------------------------|
A|-----------------------------------|
F|-----------------------------------|
C|-2-2-2-2-2-2-2-2--8-8-8-8-5-5-5-5--|
G|-2-2-2-2-2-2-2-2--8-8-8-8-5-5-5-5--|
D|-0-0-0-0-0-0-0-0--6-6-6-6-3-3-3-3--|

D|------------------------------------|
A|------------------------------------|
F|-6-6-6-6-6-6-9-9---6-6-----3-3------|
C|-6-6-6-6-6-6-9-9---6-6-5-5-3-3-2-2--|
G|-4-4-4-4-4-4-7-7---4-4-5-5-1-1-2-2--|
D|-----------------------3-3-----0-0--|

D|------------------------------------|
A|------------------------------------|
F|----------9-9-9-9-------------------|
C|-2-2-2-2--9-9-9-9--8-8-8-8-5-5-5-5--|
G|-2-2-2-2--7-7-7-7--8-8-8-8-5-5-5-5--|
D|-0-0-0-0-----------6-6-6-6-3-3-3-3--|

D|-------------------------------------------|
A|-------------------------------------------|
F|-6-6-6--9-9-9--5-5-5---------3-3-3---------|
C|-6-6-6--9-9-9--5-5-5--5-5-5--3-3-3--3-3-3--|
G|-4-4-4--7-7-7--3-3-3--5-5-5--1-1-1--3-3-3--|
D|----------------------3-3-3---------1-1-1--|

D|------------------|
A|------------------|
F|-5----------------|
C|-5-2--5-2--6-5-2--|
G|-3-2--5-2--6-5-2--|
D|---0--3-0--4-3-0--|


Fill x1
D|---------------------------------------------------|
A|---------------------------------------------------|
F|---------------------------------------------------|
C|-2-2-2-2-2-2-2-2-2-2-2-2--3-3-3-3-3-3-3-3-3-3-3-3--|
G|-2-2-2-2-2-2-2-2-2-2-2-2--3-3-3-3-3-3-3-3-3-3-3-3--|
D|-0-0-0-0-0-0-0-0-0-0-0-0--1-1-1-1-1-1-1-1-1-1-1-1--|
     . . . . . . . . . . .    . . . . . . . . . . . 
D|----------------------------------------------------|
A|----------------------------------------------------|
F|-----------------9-9-9-9--10------------------------|
C|-2-2-2-2-2-2-2-2-9-9-9-9--10-3-3-3-3-3-3-3-3-3-3-3--|
G|-2-2-2-2-2-2-2-2-7-7-7-7---8-3-3-3-3-3-3-3-3-3-3-3--|
D|-0-0-0-0-0-0-0-0-------------1-1-1-1-1-1-1-1-1-1-1--|
     . . . . . . .             . . . . . . . . . . . 


Breakdown x2
D|-------------------------------------|
A|-------------------------------------|
F|-------------------------------------|
C|-2-3-5--2-3-6--2-3-5--2-6-5-2-6-5-2--|
G|-2-3-5--2-3-6--2-3-5--2-6-5-2-6-5-2--|
D|-0-1-3--0-1-4--0-1-3--0-4-3-0-4-3-0--|


Chorus x4
D|-----------------------------------|
A|-----------------------------------|
F|-7/9-------7/9--10/9-7/9-10/9-7/9--|
C|-7/9-------7/9--10/9-7/9-10/9-7/9--|
G|-5/7-------5/7---8/7-5/7--8/7-5/7--|
D|------0-0--------------------------|


End x1
D|--------------|
A|--------------|
F|--------------|
C|-3-3-3-3-2-3--|
G|-3-3-3-3-2-3--|
D|-1-1-1-1-0-1--|
     . . . 
Tap to rate this tab
# A B C D E F G H I J K L M N O P Q R S T U V W X Y Z