Song name
# A B C D E F G H I J K L M N O P Q R S T U V W X Y Z

Noel Gallagher - God Help Us All tab

-------------------------------------------------------------------------------
                             God Help Us All - Noel Gallagher
-------------------------------------------------------------------------------
Tabbed by: Casey Copestick
Tuning: Standard EADGBe. Capo on 1 sounds cool if you want.

AKA If There's a God. Been knocking about since Heathen Chemistry.

Great song. Sounds like Weller.


Intro  

      Am               Cadd9/D
e|---------------------0--0--------------------------------------------------|
B|---1--1--1-----------1--1--------------------------------------------------|
G|---2--2--2-----------0--0--------------------------------------------------|
D|---2--2--2-----------0--0--------------------------------------------------|
A|---------------------------------------------------------------------------|
E|---------------------------------------------------------------------------|



Verse 1

   1)God Help us all      If the Heavens are to fall
   2)Stay by my side      If the sky rips open wide
    
     Am                   F  Am7 Cadd9/D         Am
e|--------------------------------0------------------------------------------|
B|---1--------------------1---1---1---------------1--------------------------|
G|---2--------------------2---0---0---------------2--------------------------|
D|---2--------------------3---2---0---------------2--------------------------|
A|---------------------------------------------------------------------------|
E|---------------------------------------------------------------------------|

Chorus 1

1)    Don't wait for me            If I'm not here when you return
2)    If there's a God             You'll be crashing when you burn

      F             C                          E               Am
e|---------------------------------------------------------------------------|
B|----1--------------1------------------------------------------1------------|
G|----2--------------0-------------------------1----------------2------------|
D|----3--------------2-------------------------2----------------2------------|
A|-------------------3-------------------------2-----------------------------|
E|---------------------------------------------------------------------------|

    You could steal white light     That shines upon the world one left to go

    F                       C               E              Am               F
e|---------------------------------------------------------------------------|
B|--1-----------------------1-------------------------------1---------------1|
G|--2-----------------------0---------------1---------------2---------------2|
D|--3-----------------------2---------------2---------------2---------------3|
A|--------------------------3---------------2--------------------------------|
E|---------------------------------------------------------------------------|

   Singing that    Sha       la       la       la       la
                 
                   Am7       G        E                 Am

e|---------------------------3-----------------------------------------------|
B|------------------1--------3---------------------------1-------------------|
G|------------------0--------0--------1------------------2-------------------|
D|------------------2--------0--------2------------------2-------------------|
A|---------------------------2--------2--------------------------------------|
E|---------------------------3-----------------------------------------------|


Verse 2

   1)If I'm just a man   Would I feel God's shifting sand
   2)Come set me free    Cos the world won't let me be

     Am                   F  Am7 Cadd9/D         Am
e|--------------------------------0------------------------------------------|
B|---1--------------------1---1---1---------------1--------------------------|
G|---2--------------------2---0---0---------------2--------------------------|
D|---2--------------------3---2---0---------------2--------------------------|
A|---------------------------------------------------------------------------|
E|---------------------------------------------------------------------------|

Chorus 2

1)    Don't wait for me            If I'm not here when you return
2)    If there's a God             You'll be crashing when you burn

      F             C                          E               Am
e|---------------------------------------------------------------------------|
B|----1--------------1------------------------------------------1------------|
G|----2--------------0-------------------------1----------------2------------|
D|----3--------------2-------------------------2----------------2------------|
A|-------------------3-------------------------2-----------------------------|
E|---------------------------------------------------------------------------|

    You could steal white light     That shines upon the world one left to go

    F                       C               E              Am               F
e|---------------------------------------------------------------------------|
B|--1-----------------------1-------------------------------1---------------1|
G|--2-----------------------0---------------1---------------2---------------2|
D|--3-----------------------2---------------2---------------2---------------3|
A|--------------------------3---------------2--------------------------------|
E|---------------------------------------------------------------------------|

   Singing that    Sha       la       la       la       la
                 
                   Am7       G        E                 Am

e|---------------------------3-----------------------------------------------|
B|------------------1--------3---------------------------1-------------------|
G|------------------0--------0--------1------------------2-------------------|
D|------------------2--------0--------2------------------2-------------------|
A|---------------------------2--------2--------------------------------------|
E|---------------------------3-----------------------------------------------|


Bridge - Sing "woooo" or whistle or whatever 


      Am               Cadd9/D
e|---------------------0--0--------------------------------------------------|
B|---1--1--1-----------1--1--------------------------------------------------|
G|---2--2--2-----------0--0--------------------------------------------------|
D|---2--2--2-----------0--0--------------------------------------------------|
A|---------------------------------------------------------------------------|
E|---------------------------------------------------------------------------|


Chorus 3


1)    Don't wait for me            If I'm not here when you return
2)    If there's a God             You'll be crashing when you burn

      F             C                          E               Am
e|---------------------------------------------------------------------------|
B|----1--------------1------------------------------------------1------------|
G|----2--------------0-------------------------1----------------2------------|
D|----3--------------2-------------------------2----------------2------------|
A|-------------------3-------------------------2-----------------------------|
E|---------------------------------------------------------------------------|

    You could steal white light     That shines upon the world one left to go

    F                       C               E              Am               F
e|---------------------------------------------------------------------------|
B|--1-----------------------1-------------------------------1---------------1|
G|--2-----------------------0---------------1---------------2---------------2|
D|--3-----------------------2---------------2---------------2---------------3|
A|--------------------------3---------------2--------------------------------|
E|---------------------------------------------------------------------------|

   Singing that    Sha       la       la       la       la
                                                                   x4
                   Am7       G        E                 Am

e|---------------------------3-----------------------------------------------|
B|------------------1--------3---------------------------1-------------------|
G|------------------0--------0--------1------------------2-------------------|
D|------------------2--------0--------2------------------2-------------------|
A|---------------------------2--------2--------------------------------------|
E|---------------------------3-----------------------------------------------|


Outro

   1)God Help us all      If the Heavens are to fall
   2)Stay by my side      If the sky rips open wide
    
     Am                   F  Am7 Cadd9/D         Am
e|--------------------------------0------------------------------------------|
B|---1--------------------1---1---1---------------1--------------------------|
G|---2--------------------2---0---0---------------2--------------------------|
D|---2--------------------3---2---0---------------2--------------------------|
A|---------------------------------------------------------------------------|
E|---------------------------------------------------------------------------|


   Singing out    Sha       la       la       la       la
                 
                   Am       Am7    Cadd9/D             Am

e|------------------------------------0--------------------------------------|
B|------------------1--------1--------1-----------------1--------------------|
G|------------------2--------0--------0-----------------2--------------------|
D|------------------2--------2--------0-----------------2--------------------|
A|------------------------------------0--------------------------------------|
E|---------------------------------------------------------------------------|


************************************

| /   slide up
| \   slide down
| h   hammer-on
| p   pull-off
| ~   vibrato
| +   harmonic
| x   Mute note
| b   Bend
| pb  Pre-bend
| br  Bend release
| pbr Pre-bend release
| brb Bend release bend

************************************
Tap to rate this tab
 
# A B C D E F G H I J K L M N O P Q R S T U V W X Y Z