Song name
# A B C D E F G H I J K L M N O P Q R S T U V W X Y Z

Noel Gallaghers High Flying Birds - The Death Of You And Me chords

Highlighted       Show chord diagrams
A few changes to the original post by  pedrokronbauer. Thanks very much to him.

                   E A D G B e
C#m/6-:            x 4 2 0 0 0
B7(1) (verse):     x 2 1 2 0 0
B7(2) (chorus):    0 2 1 2 0 1
Em/F#:            0 0 0 0 0 0
Cmaj7:             3 3 2 0 1 0



Capo: 4

e|-2-----3---2-0-------------------------------|
B|---0-----------0----3-4-5-0------------------|
G|-----0-----------0----------0--4-3-2-0-------|
D|---------------------------------------0h2---|
A|---------------------------------------------|
E|---------------------------------------------|

Em   B7(1) (3x)  Am  C

Em   B7(1) (3x)  Am  C


Em   B7(1)   Em           B7(1)
High tide, summer in the city
    Em              B7(1)
The kids are looking pretty
    Am         C            Em  B7(1)
But isnít it a pity that the sunshine
Em                 B7(1)       Em                    B7(1)
Is followed by the thunder, with thoughts of going under
    Am        C
And is it any wonder


        G                  B7(2)
Why the sea is calling out to me
                   Em    Em7  Cmaj7
I seem to spend my whole life running
                      G
From people who would be
                     B7(2)
The death of you and me
                     Em    Em7
Cause I can feel the storm clouds
C#m/6                 B7(2)
The death of you and me
                     Em    Em7
Cause I can feel the storm clouds
C#m/6-        C
Sucking up my soul


e|-2-----3---2-0---------------------------|
B|---0-----------0----3-4-5-0--------------|
G|-----0-----------0----------0--4-3-2-0---|
D|-----------------------------------------|
A|-----------------------------------------|
E|-----------------------------------------|


C  B7(1)  Em  Em7  C  B7(1)

Em  Em4/F#  G  B

C  B7(1)  Em  Em7  C  B7(1)  Em


                   G
Letís run away and see
             B7(2)
Forever weíd be free
                Em      Em7   Cmaj7
Free to spend our whole lives running
                      G
From people who would be
                 B7(2)
The death of you and me
                     Em    Em7    Cmaj7
Cause I can feel the storm clouds coming


            G               B7(2)
Watching my tv, or is it watching me?
              Em  Em7  Cmaj7
I see another new day dawning
                G          B7(2)
Itís rising over me, my mortality
                   Em    Em7
And I can feel the storm clouds
C#m/6       C
Sucking up my soul


e|-2-----3---2-0-------------------------------|
B|---0-----------0----3-4-5-0------------------|
G|-----0-----------0----------0--4-3-2-0-------|
D|---------------------------------------0h2---|
A|---------------------------------------------|
E|---------------------------------------------|


Em   B7(1) (3x)  C  B7(1)

Em   B7(1) (3x)

C  B7(1)  Em


Hope this helps. Its my first tab submission - hope I haven't offended anyone by 
tweaking the other one slightly?
Tap to rate this tab
# A B C D E F G H I J K L M N O P Q R S T U V W X Y Z