Song name
# A B C D E F G H I J K L M N O P Q R S T U V W X Y Z

Noel Gallaghers High Flying Birds - Stranded On The Wrong Beach tab

Song: (Stranded on) The Wrong Beach
Artist: Noel Gallagher's High Flying Birds
Album: Noel Gallagher's High Flying Birds
Additional: Standard tuning and capo on third

Introduction:

e|-------------------------------------------------------------------------|
B|-------------------------------------------------------------------------|
G|-------------------------------------------------------------------------|
D|--2-2-2-2--2-2-2-2--2-2-2-2--2-2-2-2--2-2-2-2--0-0-0-0--2-2-2-2--2-2-1-1-|
A|----------------------------0-0-0-0--3-3-3-3--5-5-5-5------------3-3-2-2-|
E|-0-0-0-0--2-2-2-2--3-3-3-3-------------------------------0-0-0-0---------|

Riff:

e|-------------------------------------------------------------------------|
B|-------------------------------------------------------------------------|
G|-------------------------------------------------------------------------|
D|--2-2-2-2--2-2-2-2--2-2-2-2--2-2-2-2--2-2-2-2--0-0-0-0--2-2-2-2--2-2-1-1-|
A|----------------------------0-0-0-0--3-3-3-3--5-5-5-5------------3-3-2-2-|
E|-0-0-0-0--2-2-2-2--3-3-3-3-------------------------------0-0-0-0---------|

e|-------------------------------------------------------------------------|
B|-------------------------------------------------------------------------|
G|-------------------------------------------------------------------------|
D|--2-2-2-2--2-2-2-2--2-2-2-2--2-2-2-2--2-2-2-2--0-0-0-0--0-0-0-0--4-4-4-4-|
A|----------------------------0-0-0-0--3-3-3-3--5-5-5-5--------------------|
E|-0-0-0-0--2-2-2-2--3-3-3-3-----------------------------3-3-3-3--2-2-2-2--|

Falling
I see you on the way down
I'll meet you on the rebound
Somewhere in between

Calling
Out across the airwaves
Faces that you can't say
Are calling out for me

Chorus:

e|-----------------------------|
B|-----------------------------|
G|-----------------------------| (x5)
D|-5-5-5-5--4-4-4-4---2-2--0-0-|
A|-3-3-3-3--2-2-2-2-------5-5--|
E|-------------------0-0-------|

e|------------------|
B|------------------|
G|------------------|
D|-2-2-2-2--4-4-4-4-|
A|-0-0-0-0--2-2-2-2-|
E|------------------|

And oh me oh my
Say so long baby bye bye
Pour me one for the road
It's a long journey baby
Where it's gonna take me
Just depends on the weight of my load
Oh no
Depends on the weight of my load

Other:

e|----------------------------------|
B|----------------------------------|
G|----------------------------------| 
D|--2-2-2-2-2-2-2-0-2-2-2-2-2-2-1-1-|
A|--------------------------3-3-2-2-|
E|-0-0-0-0-0-0-0-0-0-0-0-0----------|

Riff:

e|-------------------------------------------------------------------------|
B|-------------------------------------------------------------------------|
G|-------------------------------------------------------------------------|
D|--2-2-2-2--2-2-2-2--2-2-2-2--2-2-2-2--2-2-2-2--0-0-0-0--0-0-0-0--4-4-4-4-|
A|----------------------------0-0-0-0--3-3-3-3--5-5-5-5--------------------|
E|-0-0-0-0--2-2-2-2--3-3-3-3-----------------------------3-3-3-3--2-2-2-2--|

So long
See you in the next one
Cause everyone been and gone
There's no one here but

Chorus:

e|-----------------------------|
B|-----------------------------|
G|-----------------------------| (x5)
D|-5-5-5-5--4-4-4-4---2-2--0-0-|
A|-3-3-3-3--2-2-2-2-------5-5--|
E|-------------------0-0-------|

e|------------------|
B|------------------|
G|------------------|
D|-2-2-2-2--4-4-4-4-|
A|-0-0-0-0--2-2-2-2-|
E|------------------|

And oh me oh my
Say so long baby bye bye
Pour me one for the road
It's a long journey baby
Where it's gonna take me
Just depends on the weight of my load
Oh no
Depends on the weight of my load

Riff:

e|-----------------------------------|
B|-----------------------------------|
G|-----------------------------------| 
D|--2-2-2-2-2-2-2-0-2-2-2-2-2-2-1-1--|
A|--------------------------3-3-2-2--|
E|-0-0-0-0-0-0-0-0-0-0-0-0-----------|

Bridge:

e|-------------------------------------------------------------------------|
B|-------------------------------------------------------------------------|
G|----------4-4-4-4--------------------5-5-5-5--7-7-7-7--------------------| 
D|----------2-2-2-2--------------------3-3-3-3--5-5-5-5-----------5-5--4-4-|
A|-2-2-2-2-----------5-5-5-5--7-7-7-7--------------------2-2-2-2--3-3--2-2-|
E|-0-0-0-0-----------3-3-3-3--5-5-5-5--------------------0-0-0-0-----------|

e|------------------------------------------------------------------------|
B|------------------------------------------------------------------------|
G|----------4-4-4-4--------------------5-5-5-5--7-7-7-7-------------------| 
D|----------2-2-2-2--------------------3-3-3-3--5-5-5-5-----------4-4-4-4-|
A|-2-2-2-2-----------5-5-5-5--7-7-7-7--------------------5-5-5-5--2-2-2-2-|
E|-0-0-0-0-----------3-3-3-3--5-5-5-5--------------------3-3-3-3----------|

Chorus:

e|-----------------------------|
B|-----------------------------|
G|-----------------------------| (x7)
D|-5-5-5-5--4-4-4-4---2-2--0-0-|
A|-3-3-3-3--2-2-2-2-------5-5--|
E|-------------------0-0-------|

e|------------------|
B|------------------|
G|------------------|
D|-2-2-2-2--4-4-4-4-|
A|-0-0-0-0--2-2-2-2-|
E|------------------|

And oh me oh my
Say so long baby bye bye
Pour me one for the road
It's a long journey baby
Where it's gonna take me just
Depends on the weight of my load
Oh no
Depends on the weight of my load
Oh no
Depends on the weight of my load
Oh no
Depends on the weight of my load

Other:

e|----------------------------------|
B|----------------------------------|
G|----------------------------------| 
D|--2-2-2-2-2-2-2-0-2-2-2-2-2-2-1-1-|
A|--------------------------3-3-2-2-|
E|-0-0-0-0-0-0-0-0-0-0-0-0----------|

Riff:

e|--------------------------------------------------------0-|
B|--------------------------------------------------------0-|
G|--------------------------------------------------------2-|
D|--2-2-2-2--2-2-2-2--2-2-2-2--2-2-2-2--2-2-2-2--0-0-0-0--2-|
A|----------------------------0-0-0-0--3-3-3-3--5-5-5-5---0-|
E|-0-0-0-0--2-2-2-2--3-3-3-3--------------------------------|

Dry land
Sinking in the quicksand
Stranded on the wrong beach
Come and rescue me
Tap to rate this tab
# A B C D E F G H I J K L M N O P Q R S T U V W X Y Z