Song name
# A B C D E F G H I J K L M N O P Q R S T U V W X Y Z

Noenum - Fraternity Of Black Mysteriis tab

-------------------------------------------------------------------------------
                  Fraternity Of Black Mysteriis - Noenum
-------------------------------------------------------------------------------
Tabbed by: Luis Gonzalez
E-mail:

Tuning: D Standard

Riff 1: Groovy
e|-----------------|----------------|----------------|----------------------|
B|-----------------|----------------|----------------|----------------------|
G|-----------------|----------------|----------------|----------------------|
D|--7--7-9-7-10-7-9|-7--7-9-7-10-7-9|-7--7-9-7-10-7-9|-12-12-10-9--9--10p9--|
A|--0--0-0-0-0--0-0|-0--0-0-0-0--0-0|-8--8-8-8-8--8-8|-10-10-10-10-10-10-10-|
E|-----------------|----------------|----------------|----------------------|

Riff 2
e|-------------------|------------------------------------------------------|
B|-------------------|------------------------------------------------------|
G|-------------------|------------------------------------------------------|
D|--7-7-7-7-9-7-10-12|--9--9--9--10-9--10p9---------------------------------|
A|--0-0-0-0-0-0-0--10|--10-10-10-10-10-10-10--------------------------------|
E|-------------------|------------------------------------------------------|

Riff 3: Tremolo picking
e|-------------------------------|------------------------------------------|
B|-------------------------------|------------------------------------------|
G|-------------------------------|-------------------------9-10-9-----------|
D|--7---10---10---12-10--7-9-10-9|--7---10---10---12-10--7-7-7--7-----------|
A|--0---0----8----8--8---7-7-7--7|--0---0----8----8--8---7------------------|
E|-------------------------------|------------------------------------------|

Riff 4:
e|----------------------------------|---------------------------------------|
B|----------------------------------|---------------------------------------|
G|----------------------------------|---------------------------------------|
D|--7-7-9-7-10-7-9-7--7-7-7-7-7-9-10|--7-7-9-7-10-7-9-7--7-7-7-7-7-9-10-----|
A|--0-0-0-0-7--0-0-0--0-8-8-7-7-7-7-|--0-0-0-0-7--0-0-0--0-8-8-8-8-8-8------|
E|----------------------------------|---------------------------------------|

Repeat Riff 1, 2, 3
Tap to rate this tab
 
# A B C D E F G H I J K L M N O P Q R S T U V W X Y Z