Song name
# A B C D E F G H I J K L M N O P Q R S T U V W X Y Z

Nofx - Straight Edge tab

This is straight edge.  All of this is pretty much dead on......ENJOY!!!



                      SOLO: 
                              |-------8-----------------------x-x-x-x-----|
                              |--5----8---8-8-8-8-------------x-x-x-x-----|
Keep bent up until down arrow |--7^-------7-7-7-7v--5----5h6--x-x-x-x-----|
                              |-------------------------------x-x-x-x-----|
                              |-------------------------------x-x-x-x-----|
                              |-------------------------------x-x-x-x-----|



|---------x-x-x-x---------x-x-x-x---------------------------------------|
|--7--5---x-x-x-x--7h8-7--x-x-x-x--7--5-----6-5---5---------------------|
|--7--5h6-x-x-x-x--7h9-7--x-x-x-x--7--5h6---7-5-5-5---------------------|
|--7--5---x-x-x-x--7h9-7--x-x-x-x--7--5---------7---5--3--3/4---3-------|
|---------x-x-x-x---------x-x-x-x-------------------7--5--4/5---3-------|
|---------x-x-x-x---------x-x-x-x----------------------------------5----|
                                                         / = Slide     





CHORDS:(listen to song for strum pattern)

|--0----0-0------5----5--------3----3-3------3----3-------|
|--1----1-1------5----5-4------3----3-3------3----3-2-----|
|--2----2-2------5----5-5------3----3-3------3----3-3-----|
|--3----3-3------7----7-4------5----5-5-------------2-----|Repeat until solo
|-----------------------5--------------------3----3-3-----|
|---------------------------------------------------------|




SOLO:

||---13--13--13-----16--13------------13------------------------------------|
||---13--13--13--13---------------13------16--13----------------------------|
||--------------------------15^15----------------15----13----13----13----13-|
||--------------------------------------------------------15----15----15----|
||--------------------------------------------------------------------------|
||--------------------------------------------------------------------------|


e>-----------------13--------------------------------------------|
b>-----------13-h15----16----15^---13h15p13-----13---------------|
g>-----13-h14------------------------------15----15----15p13-----|
d>-------------------------------------------------15--------15--|
a>---------------------------------------------------------------|
e>---------------------------------------------------------------|
      play this line extra fast

e>-------------------------------------------------------|
b>---13--------------------------------------------------|
g>-15-----------13---------------------------------------|
d>------15--13-----15--13-----13-------------------------|
a>------------------------15----15--14--13--11-----------|
e>-------------------------------------------------------|


e>------------------13--13----|
b>-----------13-h15-13--13----|
g>----13-h14------------------|(4x)
d>----------------------------|
a>----------------------------|
e>----------------------------|


e>------------13---16--15--13--------13--------------------------------|
b>-------13h15--------------------13---16--13--------------------------|
g>-13-h14----------------------15^------------15--13----13-------------|
d>---------------------------------------------------15---15--13---13--|
a>---------------------------------------------------------------15----|
e>---------------------------------------------------------------------|

e>----------------------------||
b>----------------------------||
g>----------------------------||
d>----------------------------||
a>--15-14-13-11---11-13-------||
e>----------------------------||





Tap to rate this tab
# A B C D E F G H I J K L M N O P Q R S T U V W X Y Z