Song name
# A B C D E F G H I J K L M N O P Q R S T U V W X Y Z

Nofx - Dont Call Me White tab

|-----------------|----------------|----------------|----------------|
|-----------------|----------------|----------------|----------------|
|*----------------|2---------------|----------------|---------------*|
|-4---------------|2---------------|2---------------|----------------| 2x
|*4---------------|0---------------|2---------------|---------------*|
|-2---------------|----------------|0---------------|----------------|


|----------------|----------------|----------------|----------------|
|----------------|----------------|----------------|----------------|
|88888---99999---|88888---99999---|88888---99999---|----------------|
|44444---66776---|44444---66776---|44444---66776---|2---------------|
|----------------|----------------|----------------|2---------------|
|----------------|----------------|----------------|0---------------|


|----------------|----------------|----------------|----------------|
|----------------|----------------|----------------|----------------|
|--------22-222-2|----99999---9999|--------22-222-2|----99999---9999|
|44-444-422-222-2|22--66776---6677|44-444-422-222-2|22--66776---6677|
|44-444-400-000-0|22--------------|44-444-400-000-0|22--------------|
|22-222-2--------|00--------------|22-222-2--------|00--------------|


|----------------|----------------|----------------|----------------|
|----------------|----------------|----------------|----------------|
|--------22-222-2|----------------|----------------|----------------|
|44-444-422-222-2|44-444-422-222-2|77-777-777-777-7|77-777-777-777-7|
|44-444-400-000-0|44-444-422-222-2|77-777-777-777-7|77-777-777-777-7|
|22-222-2--------|22-222-200-000-0|55-555-555-555-5|55-555-555-555-5|


|----------------|----------------|----------------|----------------|
|----------------|----------------|----------------|----------------|
|--------22-222-2|----------------|--------22-222-2|----------------|
|44-444-422-222-2|22-222-222-222-2|44-444-422-222-2|22-222-222-222-2|
|44-444-400-000-0|22-222-222-222-2|44-444-400-000-0|22-222-222-222-2|
|22-222-2--------|00-000-000-000-0|22-222-2--------|00-000-000-000-0|


|----------------|----------------|----------------|----------------|
|----------------|----------------|----------------|----------------|
|--------22-222-2|----99999---9999|--------22-222-2|----99999---9999|
|44-444-422-222-2|22--66776---6677|44-444-422-222-2|22--66776---6677|
|44-444-400-000-0|22--------------|44-444-400-000-0|22--------------|
|22-222-2--------|00--------------|22-222-2--------|00--------------|


|----------------|----------------|----------------|----------------|
|----------------|----------------|----------------|----------------|
|--------22-222-2|----------------|----------------|----------------|
|44-444-422-222-2|44-444-422-222-2|77-777-777-777-7|77-777-777-777-7|
|44-444-400-000-0|44-444-422-222-2|77-777-777-777-7|77-777-777-777-7|
|22-222-2--------|22-222-200-000-0|55-555-555-555-5|55-555-555-555-5|


|----------------|----------------|----------------|
|----------------|----------------|----------------|
|--------22-222-2|----------------|--------22-222-2|
|44-444-422-222-2|22-222-222-222-2|44-444-422-222-2|
|44-444-400-000-0|22-222-222-222-2|44-444-400-000-0|
|22-222-2--------|00-000-000-000-0|22-222-2--------|


|-----------------|----------------------------|----------------|-----------------|
|-----------------|----------------------------|----------------|-----------------|
|*66-666-666-666-6|----------------------------|----------------|----------------*|
|-66-666-666-666-6|----------------------------|77-777-777-777-7|22-222-222-222-2-| 2X
|*44-444-444-444-4|1111-111111-111111-111111-11|77-777-777-777-7|22-222-222-222-2*|
|-----------------|7-7--7-7-7--7-7-7--7-7-7--7-|55-555-555-555-5|00-000-000-000-0-|
                  .    . .    . .    . . 

|----------------|----------------|----------------|
|----------------|----------------|----------------|
|--------22-222-2|----------------|----------------|
|44-444-422-222-2|2---------------|----------------|
|44-444-400-000-0|2---------------|----------------|
|22-222-2--------|0---------------|----------------|


|----------------|----------------|----------------|0---------------|
|----------------|----------------|----------------|0---------------|
|88888---99999---|88888---99999---|88888---99999---|1---------------|
|44444---66776---|44444---66776---|44444---66776---|2---------------|
|----------------|----------------|----------------|2---------------|
|----------------|----------------|----------------|0---------------|


|----------------|----------------|----------------|
|----------------|----------------|----------------|
|77-777-7--------|99-999-999-999-9|77-777-7--------|
|77-777-777-777-7|99-999-999-999-9|77-777-777-777-7|
|55-555-577-777-7|77-777-777-777-7|55-555-577-777-7|
|--------55-555-5|----------------|--------55-555-5|


|----------------|----------------|----------------|----------------|
|----------------|----------------|----------------|----------------|
|--------22-222-2|----------------|----------------|----------------|
|44-444-422-222-2|44-444-422-222-2|77-777-777-777-7|77-777-777-777-7|
|44-444-400-000-0|44-444-422-222-2|77-777-777-777-7|77-777-777-777-7|
|22-222-2--------|22-222-200-000-0|55-555-555-555-5|55-555-555-555-5|



|----------------|----------------|----------------|----------------|
|----------------|----------------|----------------|----------------|
|--------22-222-2|----------------|--------22-222-2|----------------|
|44-444-422-222-2|22-222-222-222-2|44-444-422-222-2|22-222-222-222-2|
|44-444-400-000-0|22-222-222-222-2|44-444-400-000-0|22-222-222-222-2|
|22-222-2--------|00-000-000-000-0|22-222-2--------|00-000-000-000-0|


|----------------|0--0--0---------|----------------|----------------|
|----------------|0--0--0---------|----------------|----------------|
|88888---99999---|1--1--1---------|----------------|----------------|
|44444---66776---|2--2--2---------|----------------|----------------|
|----------------|2--2--2---------|----------------|----------------|
|----------------|0--0--0---------|----------------|----------------|
Tap to rate this tab
 
# A B C D E F G H I J K L M N O P Q R S T U V W X Y Z