Song name
# A B C D E F G H I J K L M N O P Q R S T U V W X Y Z

Nofx - Flossing A Dead Horse tab

Band:   NOFX
Song:   Flossing A Dead Horse
Album:  So Long and Thanks for all the Shoes


Verse:
-4--4-4--4--4-4--2--2-2--5--5-5------|
-5--5-5--5--5-5--2--2-2--7--7-7------|
-6--6-6--6--6-6--3--3-3--7--7-7------|
-7--7-7--6--6-6--4--4-4--------------|
---------4--4-4----------------------|
-------------------------------------|

Chorus:
--------------------------------------------------------------|
-------------10-9-7-------------------------------------------|
-2--4-6-6-4---------9-7-6---------2--4-6-6-6--7-7-7-7-9-------|
-2--4-6-6-4---------------9-7-7\--2--4-6-6-6--7-7-7-7-9-------|
-0--2-4-4-2-----------------------0--2-4-4-4--5-5-5-5-7-------|
--------------------------------------------------------------|

Verse 2:
--5~--4~--2~--5~---------|
--5~--5~--2~--7~---------|
--6~--6~--3~--7~---------|
--7~--6~--4~--7~---------|
--7~--4~--4~--5~---------|
--5~------2~-------------|

Chorus 2:
-----------------------------------------------------|
-----------------------------------------------------|
-2--4-6-6-4---2--4-6-6-4---2--4-6-6-6--7-7-7-7-9--/--|
-2--4-6-6-4---2--4-6-6-4---2--4-6-6-6--7-7-7-7-9--/--|
-0--2-4-4-2---0--2-4-4-2---0--2-4-4-4--5-5-5-5-7--/--|
-----------------------------------------------------|

Chorus 3:
--------------------------------------------------------------------------|
--------------------------------------------------------------------------|
-2222------7777-------------6666------7777-------------7777---------------|
-2222-4444-7777-7777---7777-6666-4444-7777---7777-4444-7777-7777---7777---|
-0000-4444-5555-7777---7777-4444-4444-5555---7777-4444-5555-7777---7777---|
------2222------5555---5555------2222--------5555-2222------5555---5555---|

--------------------|
--------------------|
-6666------7777-----|
-6666-4444-7777-----|
-4444-4444-5555-----|
------2222----------|

Chorus 4:
---------------------------------------------------------|
---------------------------------------------------------|
-2--4-6-6-4---2--4-6-6-4---2--4-6-6-7~---6~-----1414-----|
-2--4-6-6-4---2--4-6-6-4---2--4-6-6-7~---6~-----1414-----|
-0--2-4-4-2---0--2-4-4-2---0--2-4-4-5~---4~-----1212-----|
---------------------------------------------------------|
Tap to rate this tab
# A B C D E F G H I J K L M N O P Q R S T U V W X Y Z