Song name
# A B C D E F G H I J K L M N O P Q R S T U V W X Y Z

Nofx - Green Corn tab

Help us improve GuitareTab! Take a short survey!
GREEN CORN by NOFX. Album: Ribbed (1991).                               
This song has got a real feeling. Nice tilulilu-solo and cool riffs all over.
A=wide guitar   B=large guitar   A&B=both guitars
!FOR MORE ACCURATE NOFX GUITAR TABS, VISIT www.jiihootabs.cjb.net!
# intro #A #=play 4X
E--------------------------------------------------------|
B--------------------------------------------------------|
G-------------------6-6--------5------/10-------------#--|
D---------------------------------------------------10---|
A-------------------4-4--------3-------/8-----------10---|
E----------------------------------------------------8---|
# intro #B *=play 6X #=play 3-4X     
E--------------------------------------------------------|    
B-----------------------------------------------------#--|     
G----*--------*--------*--------*--------*--------#--5---|     
D---7--------7--------7--------7--------3--------3---5---|     
A---7--------7--------7--------7--------3--------3---3---|     
E---5--------5--------5--------5--------1--------1-------|     
:
# main #A #=play 4X                                   
E----------------------------------------------------------------------------|
B------------------------------------------------------------------------#---|
G---141214--------------------141214---------------9-10-----9-----5-----5----|
D----------1210--12-10-7-10----------121012-10--7-----------------------5----|
A---121012--------------------121012---------------7--8-----7-----3-----3----|
E----------10-8--10--8-5--8----------10-810--8--5----------------------------|
# main #B *=play 5-6X #=play 3-4X     
E---%------------------------------------------------------------------------|    
B---%--------------------------------------------------------------------#---|     
G---%-*-----------*------------*-----------*-----------*-----------#----5----|     
D---%7-----------7------------7-----------7-----------3-----------3-----5----|     
A---%7-----------7------------7-----------7-----------3-----------3-----3----|     
E---%5-----------5------------5-----------5-----------1-----------1----------|     
:                                              !end with pick-slide!             
# jump #A&B X3 !palm-muted!  # into-verse #A&B *=play 5-6X #=play 3X 
E-------------------|        E-------------------------------------------|    
B-------------------|        B------------------------------------*------|
G---2---------------|        G-----------5-*------------5-#---#--9-------|
D---2-2-2222-22-2222|        D---3--3--3-57------3--3--357---5---9-------|
A---0-0-0000-00-0000|        A---3--3--3-37------3--3--337---5---7-------|
E-------------------|        E---1-01-01035------1-01-0135---3---7-------|
:
# verse #A X2   *=play 3X
E-----------------------------------|
B----*---*---*---*---*---*---*---*--|
G---5---2---2---5---4---4---2---5---|
D---7---3---3---5---5---5---3---5---|                                    
A---7---3---3---3---5---5---3---3---|
E---5---1---1---3---3---3---1---3---|
# verse #B X2   *=play 3X
E-----------------------------------|
B----------------*---------------*--|
G----*---*---*--5----*---*---*--5---|
D---7---3---3---5---5---5---3---5---|                                    
A---7---3---3---3---5---5---3---3---|
E---5---1---1---3---3---3---1---3---|
!FOR MORE ACCURATE NOFX GUITAR TABS, VISIT www.jiihootabs.cjb.net!
# main2 #A !B plays mainB (without pause)! #=play 4X                                  
E----------------------------------------------------------------------------|
B------------------------------------------------------------------------#---|
G---141214--------------------141214---------------9-10--9--7--5--------5----|
D----------1210--12-10-7-10----------121012-10--7-----------------------5----|
A---121012--------------------121012---------------7--8--7--5--3--------3----|
E----------10-8--10--8-5--8----------10-810--8--5----------------------------|
:
Then play AverseAX2 or BverseBX2. 
:
# bridge #A&B *=play 6X #=play 4X
E-----------------------------------------------------------|
B-----------------------------------------------------------|
G----*-------*-------*-------*-------#----------------------|
D---7-------7-------5-------5-------3---------------2-------|          
A---7-------7-------5-------5-------3-----023-2-5-3-2-------|
E---5-------5-------3-------3-------1---------------0-------|
:
# jump2 #B !A plays jumpA&BX5!                             # into-solo #A&B   
E---------->-----------------------------------------------|--------|
B---------->-----------------------------------------------|--------|
G-play----->2-02--0---------2-02--0---------2-02--0--------|--------|
D-jumpA&BX2>-------220-------------220--0----------220-----|3--3--3-|
A---------->----------3-0-------------3---------------3-0--|3--3--3-|
E---------->-----------------------------------------------|1-01-010|
:
# solo-bg #A X2 *=play 6X
E-----------3*----------------------|
B-----------3--------*--------------|                     
G----*------4-------7--------*------|                   
D---7-------5-------7-------7-------|
A---7-------5-------5-------7-------|
E---5-------3-------5-------5-------|
:         v=vibrato
# solo #B h=hammer-on p=pull-off b=bend-up one step r=release bend       >
E------------------------------------------------------------------------>
B-----------------------------------------------12-13-15-15--r-13-------->
G---------------------------4--5-/7--9-10/12/14-----------b-------14v---->
D---------------------5--7----------------------------------------------->
A------------5--7--8----------------------------------------------------->
E---5--7--8-------------------------------------------------------------->
>soloB                                                                >
>--------------10--------------10--------------10------------/-------->
>--12--13121012--12131210121312--12131210121312--121312101213151313--->
>--------p---h---h---p---h---p---h---p---h---p---h---p---h------------>
>--------------------------------------------------------------------->
>--------------------------------------------------------------------->
>-------!FAST!----------------------------!FAST!---------------------->
>soloB
>--15--r-12----12-15-15b---15-----------|
>---b-------15--------------------------|
>--------------------------------14v----|
>---------------------------------------|
>---------------------------------------|
>---------------------------------------|
:
Then play A&BverseA&BX2 (!pause first time!)
:
# outro #A #=play 4X                                   
E---------------------------------------------------|
B---------------------------------------------------|
G---141214-------141214-------141214-----------14-\\|
D----------1210---------1210---------1210--121014-\\|
A---121012-------121012-------121012-----------12-\\|
E----------10-8---------10-8---------10-8--10-8-----|
# outro #B *=play 5-6X #=play 3-4X     
E---------------------------------------------------|    
B-----------------*---------------------------------|     
G-----*----------5------------7-7-7-5-7-910-7-5-2---|     
D----7-----------5------------7-7-7-5-7-910-7-5-2---|     
A----7-----------3------------5-5-5-3-5-7-8-5-3-0---|     
E----5----------------------------------------------|     
!FOR MORE ACCURATE NOFX GUITAR TABS, VISIT www.jiihootabs.cjb.net!
I close my eyes and I go to sleep!
Tabbed by Jussi Heinonen 18.12.1997.    (revised 23.08.2003.)
Related for Green Corn tab