Song name
# A B C D E F G H I J K L M N O P Q R S T U V W X Y Z

Nofx - Hotdog In A Hallway tab

---------------------------------------------------------------------------
Hot dog in a hallway- NOFX
---------------------------------------------------------------------------
Tabbed by: Wenka
Email: a_acardipane@web.de

Tuning: Standard (E-A-D-G-B-e)

Intro
e|----------------x---x---x-----|
B|----------------x---x---x-----|
G|----------------x---x---x-----|
D|----7/8\7/8\7/8--xxx-xxx-xx---|  X4
A|----7/8\7/8\7/8--xxx-xxx-xx---|
E|----5/6\5/6\5/6--xxx-xxx-xx---|

e|---------------|
B|---------------|
G|---------------|
D|----7/8\7/8----|  X1
A|----7/8\7/8----|
E|----5/6\5/6----|

Pre-Verse
e|---------------------------|
B|-------------5----6--------|
G|-------6----6----7----7----|
D|------7----6----7----8-----|  X3
A|-----7----4----5----8------|
E|----5--------------6-------|

e|--------------------|
B|-------------5------|
G|-------6----6-------|
D|------7----6--------|  X1
A|-----7----4----5----|
E|----5---------------|

Verse
e|----5-55-4-44-5-55-6666----|
B|----5-55-6-66-7-77-6666----|
G|----6-66-6-66-7-77-5555----|
D|----7-77-6-66-7-77-8888----|  X3
A|----7-77-4-44-5-55-8888----|
E|----5-55-----------6666----|

e|----5-55-4-44-5----|
B|----5-55-6-66-7----|
G|----6-66-6-66-7----|
D|----7-77-6-66-7----|  X1
A|----7-77-4-44-5----|
E|----5-55-----------|

Chorus
e|-----------------------------------------------|
B|-----------------------------------------------|
G|---------6-66-7-77---------------------7-77----|
D|----7-77-6-66-7-77-8-88-7-77-2-22-3-33-7-77----|
A|----7-77-4-44-5-55-8-88-7-77-2-22-3-33-5-55----|
E|----5-55-----------6-66-5-55-0-00-1-11---------|

e|-----------------------------------------------|
B|-----------------------------------------------|
G|---------6-66-7-77-----------6-66-7-77---------|
D|----7-77-6-66-7-77-8-88-7-77-6-66-7-77-8-88----|  X2 (whole chorus)
A|----7-77-4-44-5-55-8-88-7-77-4-44-5-55-8-88----|
E|----5-55-----------6-66-5-55-----------6-66----|

e|---------------|
B|---------------|
G|---------------|
D|----7/8\7/8----| X1 (right after chorus)
A|----7/8\7/8----|
E|----5/6\5/6----|

Pre-Verse
e|---------------------------|
B|-------------5----6--------|
G|-------6----6----7----7----|
D|------7----6----7----8-----|  X3
A|-----7----4----5----8------|
E|----5--------------6-------|

End-Riff
e|---------5~~----|
B|--------5~~-----|
G|-------6~~------|
D|------7~~-------|
A|-----7~~--------|
E|----5~~---------|


Intro X1
Pre-Verse X1
Verse X2
Chorus X2
Intro X0,5 ;D
Verse X2
Chorus X2
Pre-Verse X1
End-Riff x1


I'm from Berlin/Germany, Bush-dictatorship suxs, NOFX rules!

12-08-2004

Wenka
Tap to rate this tab
 
# A B C D E F G H I J K L M N O P Q R S T U V W X Y Z