Song name
# A B C D E F G H I J K L M N O P Q R S T U V W X Y Z

Nofx - Jeff Wears Birkenstocks tab

JEFF WEARS BIRKENSTOCKS by NOFX. Album : Punk in drublic (1994)
"Happy goings-on!"
A=left guitar   B=right guitar   A&B=both
:
# intro #A             /\=palm-muted                                   >
E-----/-----------\----/-----------\----/-----------\------------------>
B---------------------------------------------------------------------->
G-------------------------------------------------------12121212121212->
D---7-9-7-9-7-9-7-9--7-9-7-9-7-9-7-9--7-9-7-9-7-9-7-9--712121212121212->
A---5-5-5-5-5-5-5-5--5-5-5-5-5-5-5-5--5-5-5-5-5-5-5-5--510101010101010->
E---------------------------------------------------------------------->
# intro #B                                                             >
E---------------------------------------------------------------------->
B---------------------------------------------------------------------->
G-------------------------------------------------------12121212121212->
D-------------------------------------------------------12121212121212->
A-------------------------------------------------------10101010101010->
E---------------------------------------------------------------------->
>introA
>-----/-----------\----/-----------\----/-----------\--------------------|
>------------------------------------------------------------------------|
>-------------------------------------------------------12121212121212---|
>---7-9-7-9-7-9-7-9--7-9-7-9-7-9-7-9--7-9-7-9-7-9-7-9--712121212121212---|
>---5-5-5-5-5-5-5-5--5-5-5-5-5-5-5-5--5-5-5-5-5-5-5-5--510101010101010---|
>------------------------------------------------------------------------|
>introB   h=hammer-on   p=pull-off
>------------------------------------------------------------------------|
>-------------------------------8h9p8-7----------------------------------|
>---7----------5h7p5-7---------------------------5h7p5-712121212121212---|
>---7---------------------------------------------------12121212121212---|
>---5---------------------------------------------------10101010101010---|
>------------------------------------------------------------------------|
:
# verse #A&B X2  /\=palm-muted
E-----/---\----/---\----/---\----/---\----/---\----/---------------------\---|
B----------------------------------------------------------------------------|
G----------------------------------------------------------------------------|
D---7-9-7-9-----------------------------7-9-7-9-------------00224455442200---|
A---5-5-5-5--5-7-5-7--7-9-7-9--5-7-5-7--5-5-5-5--5-7-5-7--00-----------------|
E------------3-3-3-3--5-5-5-5--3-3-3-3-----------3-3-3-3---------------------|
:
# chorus #A&B   *=play 4X
E---------------------------3---|
B----*-------*-------*---*--3---|
G---7----*--7----*--7---5---4---|
D---7---5---7---5---7---5---5---|
A---5---5---5---5---5---3---5---|
E-------3-------3---------------|
:
# bridge #A&B X2   /\=palm-muted
E-----/---\----/---\----/---\----/---\----/---\----/---\---------------------|
B----------------------------------------------------------------------------|
G----------------------------------------------------------------------------|
D---7-9-7-9-----------------------------7-9-7-9-----------7--7--7-7-7-7-7-7--|
A---5-5-5-5--5-7-5-7--7-9-7-9--5-7-5-7--5-5-5-5--5-7-5-7--7--7--7-7-7-7-7-7--|
E------------3-3-3-3--5-5-5-5--3-3-3-3-----------3-3-3-3--5--5--5-5-5-5-5-5--|
:
Then play verseA&BX2 and chorusA&B.
:
# bridge #A&B   *=play 4X    (Shoes...)
E-----------------------------------------------------------3---|
B----------------*---------------*---------------*----------3---|
G----*---*---*--7----*---*---*--7----*---*---*--7----*---*--4---|
D---4---2---5---7---4---2---5---7---4---2---5---7---4---2---5---|
A---5---3---5---5---5---3---5---5---5---3---5---5---5---3---5---|
E-----------3---------------3---------------3-------------------|
:
# outro #A
E-----/-----------\----/-----------\----/-----------\----------------------|
B--------------------------------------------------------------------------|
G-------------------------------------------------------12121212121212-7---|
D---7-9-7-9-7-9-7-9--7-9-7-9-7-9-7-9--7-9-7-9-7-9-7-9--712121212121212-7---|
A---5-5-5-5-5-5-5-5--5-5-5-5-5-5-5-5--5-5-5-5-5-5-5-5--510101010101010-5---|
E--------------------------------------------------------------------------|
# outro #B   h=hammer-on   p=pull-off
E--------------------------------------------------------------------------|
B-------------------------------8h9p8-7------------------------------------|
G---7----------5h7p5-7---------------------------5h7p5-712121212121212-7---|
D---7---------------------------------------------------12121212121212-7---|
A---5---------------------------------------------------10101010101010-5---|
E--------------------------------------------------------------------------|
Tap to rate this tab
 
# A B C D E F G H I J K L M N O P Q R S T U V W X Y Z