Song name
# A B C D E F G H I J K L M N O P Q R S T U V W X Y Z

Nofx - Life O Riley tab

Band: Nofx
Album: S and M airlines
song: Life O Riley

You hear bass for the intro for about 10 seconds until guitar comes in
When you play ska you do upstrokes only. So do that during the verse

Intro (4 times)
e|--4--4--4--4--4------------2---0-----|
B|--5--5--5--5--5--------0-2---2-------|
G|--4--4--4--4--4----------------------|
D|-------------------------------------|
A|-------------------------------------|
E|-------------------------------------|


verse 1 (play 8 times)
e|--4--4--4--4--4------------2---0-----|
B|--5--5--5--5--5--------0-2---2-------|
G|--4--4--4--4--4----------------------|
D|-------------------------------------|
A|-------------------------------------|
E|-------------------------------------|

Chorus
e|--------------------------------------------------------------------|
B|--------------------------------------------------------------------|
G|-----------9----7-------------------9---------------------9------7--|
D|-----------9----7----7--------------9----5----------------9--7---7--|
A|-----------7----5----7--------------7----3--5-------------7--5---5--|
E|--3-2-0--------------5---0-0-0-0------------3----0-0-0-0------------|


Play 4 times
e|--4--4--4--4--4------------2---0-----|
B|--5--5--5--5--5--------0-2---2-------|
G|--4--4--4--4--4----------------------|
D|-------------------------------------|
A|-------------------------------------|
E|-------------------------------------|


Verse 2  (Play 8 times)
e|--4--4--4--4--4------------2---0-----|
B|--5--5--5--5--5--------0-2---2-------|
G|--4--4--4--4--4----------------------|
D|-------------------------------------|
A|-------------------------------------|
E|-------------------------------------|

Chorus
e|--------------------------------------------------------------------|
B|--------------------------------------------------------------------|
G|-----------9----7-------------------9---------------------9------7--|
D|-----------9----7----7--------------9----5----------------9--7---7--|
A|-----------7----5----7--------------7----3--5-------------7--5---5--|
E|--3-2-0--------------5---0-0-0-0------------3----0-0-0-0------------|


outro (Play 4 times)
e|--4--4--4--4--4------------2---0-----|
B|--5--5--5--5--5--------0-2---2-------|
G|--4--4--4--4--4----------------------|
D|-------------------------------------|
A|-------------------------------------|
E|-------------------------------------|
Tap to rate this tab
# A B C D E F G H I J K L M N O P Q R S T U V W X Y Z