Song name
# A B C D E F G H I J K L M N O P Q R S T U V W X Y Z

Nofx - Life O Riley tab

#


From cerm@sprintmail.com Wed Apr  9 12:57:18 1997
Date: Sun, 06 Apr 1997 18:08:58 -0400
From: Robert Cerminara 
To: guitar@olga.net
Subject: TAB: NOFX; Life O' Riley

Life O' Riley
  by: NOFX

 Transcribed by Mike Cerminara        
         (with support from Whitney Jackson)

It helps to know hear and understand the feel, before
tryin' to play this.

First, a bit o' bass tab...  

G-------------------------------
D-------------------2-----------
A-------------0--2-4-2--2-------
E-4-2-0--2--4------------4-2-0--

    This is pretty much used throughout the song, 'cept
   in the chorus.  If you can't figure out the chorus,
   you can't play this song.  (By the way, the chords in
   the chorus go E, D, A, about three times.)

Now, the cheezy ska riff...

E---3-3-3-3-3-------------------
B---4-4-4-4-4-4--6-6-4----------
G-------------3--5-5-3----------
D-------------------------------
A-------------------------------
E-------------------------------

    (play this forever.) 

And the chorus...

E-----------------------------
B-----------------------------
G-----------9---7-------------
D-2-2-2-2-2-9---7---7---------
A-2-2-2-2-2-7---5---7---------
E-0-0-0-0-0---------5---------

   (repeat that three times.)
Tap to rate this tab
# A B C D E F G H I J K L M N O P Q R S T U V W X Y Z