Song name
# A B C D E F G H I J K L M N O P Q R S T U V W X Y Z

Nofx - Linoleum tab

NOFX - Linoleum

 . : Plam Mute
 / : Pick Slide
 \ : Slide Down
 x : Dead Note

->Lead Guitar:

|----------------|        |----------------|
|----------------|        |----------------|
|----------------|        |----------------|
|9-xxxx9-xxxx9-9-| 7x     |9-xxxx9-xxxx////|
|7-xxxx7-xxxx7-7-|        |7-xxxx7-xxxx////|
|----------------|        |----------------|


|----------------------------|----------------|----------------|----------------|
|----------------------------|----------------|----------------|----------------|
|1313-131313-131313-131313-13|55-555-555-555-5|99-999-999-999-9|99-999-988-888-8|
|x-x--x-x-x--x-x-x--x-x-x--x-|xx-xxx-xxx-xxx-x|xx-xxx-xxx-xxx-x|xx-xxx-xxx-xxx-x|
|1111-111111-111111-111111-11|33-333-333-333-3|77-777-777-777-7|77-777-766-666-6|
|----------------------------|----------------|----------------|----------------|


|----------------|
|----------------|
|----------------|
|9-xxxx9-xxxx9-9-| 2x
|7-xxxx7-xxxx7-7-| 
|----------------|


|----------------|----------------|----------------|----------------|
|----------------|----------------|----------------|----------------|
|----------------|----------------|66-666-6--------|----------------|
|22-222-222-222-2|66-666-666-666-6|66-666-699-999-9|77-777-799-999-9| 2x
|22-222-222-222-2|66-666-666-666-6|44-444-499-999-9|77-777-799-999-9|
|00-000-000-000-0|44-444-444-444-4|--------77-777-7|55-555-577-777-7|


|----------------|----------------|----------------------------|----------------|
|----------------|----------------|----------------------------|----------------|
|----------------|----------------|----------------------------|----------------|
|66-666-666-666-6|----------------|----------------------------|----------------|
|77-777-777-777-7|66-666-666-666-6|1111-111111-111111-111111-11|77-777-777-777-7|
|----------------|77-777-777-777-7|9-9--9-9-9--9-9-9--9-9-9--9-|55-555-555-555-5|


|----------------|----------------|----------------|----------------|
|----------------|----------------|----------------|----------------|
|----------------|----------------|66-666-6--------|----------------|
|22-222-222-222-2|66-666-666-666-6|66-666-699-999-9|77-777-799-999-9| 
|22-222-222-222-2|66-666-666-666-6|44-444-499-999-9|77-777-799-999-9|
|00-000-000-000-0|44-444-444-444-4|--------77-777-7|55-555-577-777-7|


|----------------|----------------|----------------------------|----------------|
|----------------|----------------|----------------------------|----------------|
|----------------|----------------|----------------------------|----------------|
|66-666-666-666-6|----------------|----------------------------|----------------|
|77-777-777-777-7|66-666-666-666-6|1111-111111-111111-111111-11|77-777-777-777-7|
|----------------|77-777-777-777-7|9-9--9-9-9--9-9-9--9-9-9--9-|55-555-555-555-5|


|----------------|----------------|-------------------------------|----------------|
|----------------|----------------|-------------------------------|----------------|
|----------------|----------------|-------------------------------|----------------|
|6-66666666666666|----------------|-------------------------------|----------------|
|7-77777777777777|6-66666666666666|11-1111111111111111111111111111|7-7-7777-77-7777|
|----------------|7-77777777777777|9--9-9-9-9-9-9-9-9-9-9-9-9-9-9-|5-5-5555-55-5555|
   ..............   ..............    . . . . . . . . . . . . . . 


|----------------|----------------|----------------------------|----------------|
|----------------|----------------|----------------------------|----------------|
|----------------|----------------|----------------------------|----------------|
|6-6-6666-66-6666|----------------|----------------------------|----------------|
|7-7-7777-77-7777|6-6-6666-66-6666|11-11-11111111-1111-11111111|77-777-777-777-7|
|----------------|7-7-7777-77-7777|9--9--9-9-9-9--9-9--9-9-9-9-|55-555-555-555-5|


|----------------|----------------|----------------------------|----------------|
|----------------|----------------|----------------------------|----------------|
|----------------|----------------|----------------------------|----------------|
|66-666-666-666-6|----------------|----------------------------|----------------| 
|77-777-777-777-7|66-666-666-666-6|1111-111111-111111-111111-11|77-777-777-777-7|
|----------------|77-777-777-777-7|9-9--9-9-9--9-9-9--9-9-9--9-|55-555-555-555-5|


|----------------|----------------|----------------------------|----------------|
|----------------|----------------|----------------------------|----------------|
|----------------|----------------|----------------------------|----------------|
|66-666-666-666-6|----------------|----------------------------|----------------| 
|77-777-777-777-7|66-666-666-666-6|1111-111111-111111-111111-11|77-777-777-7////|
|----------------|77-777-777-777-7|9-9--9-9-9--9-9-9--9-9-9--9-|55-555-555-5////|


|----------------------------|----------------|----------------|----------------|
|----------------------------|----------------|----------------|----------------|
|1313-131313-131313-131313-13|55-555-555-555-5|99-999-999-999-9|99-999-988-888-8|
|x-x--x-x-x--x-x-x--x-x-x--x-|xx-xxx-xxx-xxx-x|xx-xxx-xxx-xxx-x|xx-xxx-xxx-xxx-x|
|1111-111111-111111-111111-11|33-333-333-333-3|77-777-777-777-7|77-777-766-666-6|
|----------------------------|----------------|----------------|----------------|


|----------------|       |----------------|
|----------------|       |----------------|
|----------------|       |----------------|
|9-xxxx9-xxxx9-9-| 3x    |9\\\\\\\\\\\\\\x|
|7-xxxx7-xxxx7-7-|       |7\\\\\\\\\\\\\\x|
|----------------|       |----------------|



->Rythm Guitar:



|----------------|      
|----------------|      
|----------------|      
|----------------| 4x   
|----------------|      
|----------------|      
                             



|----------------|----------------|----------------|----------------|
|----------------|----------------|----------------|----------------|
|----------------|----------------|----------------|----------------|
|2-2-2-2-2-2-2-2-|2-2-2-2-2-2-2-2-|2-2-2-2-2-2-2-2-|2-2-2-2-////////|
|2-2-2-2-2-2-2-2-|2-2-2-2-2-2-2-2-|2-2-2-2-2-2-2-2-|2-2-2-2-////////|
|0-0-0-0-0-0-0-0-|0-0-0-0-0-0-0-0-|0-0-0-0-0-0-0-0-|0-0-0-0-////////|
 . . . . . . . .  . . . . . . . .  . . . .



|----------------|----------------|----------------|----------------|
|----------------|----------------|----------------|----------------|
|----------------|----------------|66-666-6--------|----------------|
|22-222-222-222-2|66-666-666-666-6|66-666-699-999-9|77-777-799-999-9| 
|22-222-222-222-2|66-666-666-666-6|44-444-499-999-9|77-777-799-999-9|
|00-000-000-000-0|44-444-444-444-4|--------77-777-7|55-555-577-777-7|


|----------------|
|----------------|
|----------------|
|----------------| 2x
|----------------|
|----------------|


|----------------|----------------|----------------|----------------|
|----------------|----------------|----------------|----------------|
|----------------|----------------|66-666-6--------|----------------|
|22-222-222-222-2|66-666-666-666-6|66-666-699-999-9|77-777-799-999-9| 2x
|22-222-222-222-2|66-666-666-666-6|44-444-499-999-9|77-777-799-999-9|
|00-000-000-000-0|44-444-444-444-4|--------77-777-7|55-555-577-777-7|


|----------------|----------------|----------------------------|----------------|
|----------------|----------------|----------------------------|----------------|
|----------------|----------------|----------------------------|----------------|
|66-666-666-666-6|----------------|----------------------------|----------------|
|77-777-777-777-7|66-666-666-666-6|1111-111111-111111-111111-11|77-777-777-777-7|
|----------------|77-777-777-777-7|9-9--9-9-9--9-9-9--9-9-9--9-|55-555-555-555-5|


|----------------|----------------|----------------|----------------|
|----------------|----------------|----------------|----------------|
|----------------|----------------|66-666-6--------|----------------|
|22-222-222-222-2|66-666-666-666-6|66-666-699-999-9|77-777-799-999-9| 
|22-222-222-222-2|66-666-666-666-6|44-444-499-999-9|77-777-799-999-9|
|00-000-000-000-0|44-444-444-444-4|--------77-777-7|55-555-577-777-7|


|----------------|----------------|----------------------------|----------------|
|----------------|----------------|----------------------------|----------------|
|----------------|----------------|----------------------------|----------------|
|66-666-666-666-6|----------------|----------------------------|----------------|
|77-777-777-777-7|66-666-666-666-6|1111-111111-111111-111111-11|77-777-777-777-7|
|----------------|77-777-777-777-7|9-9--9-9-9--9-9-9--9-9-9--9-|55-555-555-555-5|


|----------------|----------------|-------------------------------|----------------|
|----------------|----------------|-------------------------------|----------------|
|----------------|----------------|-------------------------------|----------------|
|6-66666666666666|----------------|-------------------------------|----------------|
|7-77777777777777|6-66666666666666|11-1111111111111111111111111111|7-7-7777-77-7777|
|----------------|7-77777777777777|9--9-9-9-9-9-9-9-9-9-9-9-9-9-9-|5-5-5555-55-5555|
   ..............   ..............    . . . . . . . . . . . . . . 


|----------------|----------------|----------------------------|----------------|
|----------------|----------------|----------------------------|----------------|
|----------------|----------------|----------------------------|----------------|
|6-6-6666-66-6666|----------------|----------------------------|----------------|
|7-7-7777-77-7777|6-6-6666-66-6666|11-11-11111111-1111-11111111|77-777-777-777-7|
|----------------|7-7-7777-77-7777|9--9--9-9-9-9--9-9--9-9-9-9-|55-555-555-555-5|


|----------------|----------------|----------------------------|----------------|
|----------------|----------------|----------------------------|----------------|
|----------------|----------------|----------------------------|----------------|
|66-666-666-666-6|----------------|----------------------------|----------------| 
|77-777-777-777-7|66-666-666-666-6|1111-111111-111111-111111-11|77-777-777-777-7|
|----------------|77-777-777-777-7|9-9--9-9-9--9-9-9--9-9-9--9-|55-555-555-555-5|


|----------------|----------------|----------------------------|----------------|
|----------------|----------------|----------------------------|----------------|
|----------------|----------------|----------------------------|----------------|
|66-666-666-666-6|----------------|----------------------------|----------------| 
|77-777-777-777-7|66-666-666-666-6|1111-111111-111111-111111-11|77-777-777-7////|
|----------------|77-777-777-777-7|9-9--9-9-9--9-9-9--9-9-9--9-|55-555-555-5////|


|----------------|----------------|----------------|----------------|
|----------------|----------------|----------------|----------------|
|----------------|----------------|66-666-6--------|----------------|
|22-222-222-222-2|66-666-666-666-6|66-666-699-999-9|77-777-799-999-9| 
|22-222-222-222-2|66-666-666-666-6|44-444-499-999-9|77-777-799-999-9|
|00-000-000-000-0|44-444-444-444-4|--------77-777-7|55-555-577-777-7|


|----------------|        |----------------|----------------|
|----------------|        |----------------|----------------|
|----------------|        |----------------|----------------|
|----------------| 2x     |----------------|----------------|
|----------------|        |------------2-2-|2\\\\\\\\\\\\\\x|
|----------------|        |------------0-0-|0\\\\\\\\\\\\\\x|



RATE IT PLEASE !!! :)

Tap to rate this tab
 
# A B C D E F G H I J K L M N O P Q R S T U V W X Y Z