Guitaretab - guitar tabs
Song name
# A B C D E F G H I J K L M N O P Q R S T U V W X Y Z

Nofx - Murder The Government tab

Artist - NOFX
Song - Murder The Government
Tabbed by - Grind The Fender
Email - Grind_the_fender@yahoo.com

Pretty easy song. Any questions. email me.

Intro
e|---------------------2--|
B|-------------------2----|
G|--8--5--1--------3------|
D|--9--6--2------4--------|
A|--9--6--2----4----------|
E|--7--4--0--2------------|

Verse/Chorus/Outro
e|----------------------------------------------------|
B|----------------------------------------------------|
G|----------------------------------------------------|
D|--9-9-9-9-9-9-9-9-9-9-9-9--6-6-6-6-6-6-6-6-6-6-6-6--|
A|--9-9-9-9-9-9-9-9-9-9-9-9--6-6-6-6-6-6-6-6-6-6-6-6--|
E|--7-7-7-7-7-7-7-7-7-7-7-7--4-4-4-4-4-4-4-4-4-4-4-4--|

e|----------------------------------------------------|
B|----------------------------------------------------|
G|----------------------------------------------------|
D|--2-2-2-2-2-2-2-2-2-2-2-2--4-4-4-4-4-4-4-4-4-4-4-4--|
A|--2-2-2-2-2-2-2-2-2-2-2-2--4-4-4-4-4-4-4-4-4-4-4-4--|
E|--0-0-0-0-0-0-0-0-0-0-0-0--2-2-2-2-2-2-2-2-2-2-2-2--|
[ Tab from: http://www.guitaretab.com/n/nofx/13546.html ]
e|----------------------------------------------------|
B|----------------------------------------------------|
G|----------------------------------------------------|
D|--9-9-9-9-9-9-9-9-9-9-9-9--6-6-6-6-6-6-6-6-6-6-6-6--|
A|--9-9-9-9-9-9-9-9-9-9-9-9--6-6-6-6-6-6-6-6-6-6-6-6--|
E|--7-7-7-7-7-7-7-7-7-7-7-7--4-4-4-4-4-4-4-4-4-4-4-4--|

e|-------------------------------|
B|-------------------------------|
G|-------------------------------|
D|--2-2-2-2-2-2-2-2-2-2-2-2--4~--|
A|--2-2-2-2-2-2-2-2-2-2-2-2--4~--|
E|--0-0-0-0-0-0-0-0-0-0-0-0--2~--|

e|----------------------------------------------------|
B|----------------------------------------------------|
G|----------------------------------------------------|
D|--9-9-9-9-9-9-9-9-9-9-9-9--6-6-6-6-6-6-6-6-6-6-6-6--|
A|--9-9-9-9-9-9-9-9-9-9-9-9--6-6-6-6-6-6-6-6-6-6-6-6--|
E|--7-7-7-7-7-7-7-7-7-7-7-7--4-4-4-4-4-4-4-4-4-4-4-4--|

e|-----------------------------------|
B|-----------------------------------|
G|-----------------------------------|
D|--2-2-2-2-2-2-2-2-2-2-2-2--4~--/9--|
A|--2-2-2-2-2-2-2-2-2-2-2-2--4~--/9--|
E|--0-0-0-0-0-0-0-0-0-0-0-0--2~--/7--|




Related for Murder The Government tab
Advertisement will be closed in 10 seconds