Song name
# A B C D E F G H I J K L M N O P Q R S T U V W X Y Z

Nofx - Perfect Government tab

From: Rubin1838@aol.com
Date: Sun, 3 Dec 1995 20:52:35 -0500

This is Nofx; Perfect Government, off of Punk in Drublic: transcribed by
Rubin 1838

-----------------------------------------------------------------  w/ out
distortion
-----------------------------------------------------------------
---15-17-19-20---------15---------------------------------
---------------------16-14----16-----------------------------
-------------------------------------16-17-14-12-----------
-------------------------------------------------------14-------

w/ dist.

------------------------------------------------------------------------------
---------------------------------
---11(bend 2x)-10-8-10-10(full
bend)-8---8---------------12-13-13h15-13-12-13-12--
------------------------------------------------------9---9-7-9---------------
------------------------------
------------------------------------------------------------------------------
----------------------------------
------------------------------------------------------------------------------
----------------------------------
------------------------------------------------------------------------------
----------------------------------

--------------------------------------------------      
 -------12----------------------------------------
                                
---14-----14(full bend)-12-----------------
-----------------------------------14-12-14---
----------------------------------------------------
---------------------------------------------------

w/ out dist.

---3---X---0---X--     (yeah I'd love to watch the world
---0---3---0---1--      from the white house.....)--->  G5toB5toC5toC#5
---0---2---0---0--
---0---0---2---2--      (how do they sleep at night?...)--->G5toE5
(<---pm_____)
---2---0---2---3--
---3---2---0---0--

outro=

------------------------------------------------------------------------------
---------------------------------
---16(2 1/2
bends)-15-12-13-13h15-13-12-13-12-----12---12-13-12-15-13-12-------
--------------------------------------------------------------------14--------
--------------------------------
------------------------------------------------------------------------------
---------------------------------
------------------------------------------------------------------------------
----------------------------------
------------------------------------------------------------------------------
-----------------------------------

------------------------------------------------
---15-13-12-13-12------------------------
-------------------------14--------------------
-----------------------------10-12------------
--------------------------------------10-------
---
Tap to rate this tab
 
# A B C D E F G H I J K L M N O P Q R S T U V W X Y Z