Guitaretab - guitar tabs
Song name
# A B C D E F G H I J K L M N O P Q R S T U V W X Y Z
Home / N / Nofx / Punk Guy tab

Nofx - Punk Guy tab

Band: NOFX
Song: Punk Guy (Cause He Does Punk Things)
Album: Punk in Drublic

The other tabs of this song left a few things out. I'm clearing them up. This tab was
created for www.ultimate-guitar.com 
Another thing, I rule.

Guitar A: Eric Melvin
Guitar B: El Hefe

(#): Played or not played a certain time
x: Mute

I put the times for every part and put every part in order.


Verse:
Guitars: A&B
(0:01)
E|-----------------------------------------------------------|
B|-----------------------------------------------------------|
G|-------------------555-555-222-222-------------------------|
D|-(3)33-333-555-555-555-555-222-222-------------------------|
A|-(3)33-333-555-555-333-333-000-000-------------------------|
E|-(1)11-111-333-333-----------------------------------------| x3
Don't play the chord in the parenthesis the first time through.

(0:15)
E|-----------------------------------------------------------|
B|-----------------------------------------------------------|
G|-----------------5-5-5-5-222-222---------------------------|
D|-333-333-555-555-5-5-5-5-222-222---------------------------|
A|-333-333-555-555-3-3-3-3-000-000---------------------------|
E|-111-111-333-333-------------------------------------------| x1

Chorus:
Guitars: A&B
(0:20)
E|-----------------------------------------------------------|
B|-----------------------------------------------------------|
G|-------------------000-0-0---000-0-0-----------------------|
D|-(0)00-000-333-333-222-2-2---222-2-2-----------------------|
A|-(2)22-222-333-333-333-3-3---333-3-3-----------------------|
E|-(3)33-333-111-111-----------------------------------------| x1

E|-----------------------------------------------------------|
B|-----------------------------------------------------------|
G|-----------------222-222-222-222---------------------------|
D|-000-000-333-333-222-222-222-222---------------------------|
A|-222-222-333-333-000-000-000-000---------------------------|
E|-333-333-111-111-------------------------------------------| x1

Verse:
Guitars: A&B
(0:30)
E|-----------------------------------------------------------|
B|-----------------------------------------------------------|
G|-----------------55-555-222-222----------------------------|
D|-3-3-3-3-5-5-5-5-55-555-222-222----------------------------|
A|-3-3-3-3-5-5-5-5-33-333-000-000----------------------------|
E|-1-1-1-1-3-3-3-3-------------------------------------------|
[ Tab from: http://www.guitaretab.com/n/nofx/13555.html ]
Chorus:
Guitars: A&B
(0:35)
E|-----------------------------------------------------------|
B|-----------------------------------------------------------|
G|-------------------000-0-0---000-0-0-----------------------|
D|-(0)00-000-333-333-222-2-2---222-2-2-----------------------|
A|-(2)22-222-333-333-333-3-3---333-3-3-----------------------|
E|-(3)33-333-111-111-----------------------------------------| x1

(0:40)
E|-----------------------------------------------------------|
B|-----------------------------------------------------------|
G|-----------------222-222-222-222---------------------------|
D|-000-000-333-333-222-222-222-222---------------------------|
A|-222-222-333-333-000-000-000-000---------------------------|
E|-333-333-111-111-------------------------------------------| x1

Bridge:
Guitar: B
(0:45)
Palm-muted...
E|-----------------------------------------------------------|
B|-----------------------------------------------------------|
G|-----------------------------------------------------------|
D|-33333333-55555555-----------------------------------------|
A|-33333333-55555555-----------------------------------------|
E|-11111111-33333333-----------------------------------------|
Guitar A plays the first chord once then pauses.

Outro:
Guitars: A&B
(0:50)
E|-----------------------------------------------------------|
B|-----------------------------------------------------------|
G|----------------555-555-222-222----------------------------|
D|-33-333-555-555-555-555-222-222----------------------------|
A|-33-333-555-555-333-333-000-000----------------------------|
E|-11-111-333-333--------------------------------------------|

(0:55)
E|-----------------------------------------------------------|
B|-----------------------------------------------------------|
G|------------5----------------------------------------------|
D|-333-333-55-5----------------------------------------------|
A|-333-333-55-3----------------------------------------------|
E|-111-111-33------------------------------------------------|

Guitar: A
(1:03)
Octaves
E------------------------------------------------------------|
B------------------------------------------------------------|
G-5555555555555555-------------------------------------------|
D-xxxxxxxxxxxxxxxx-------------------------------------------|
A-3333333333333333-------------------------------------------|
E------------------------------------------------------------|
He strums it more than that, but I didn't bother counting.
Play it with the side of your pick to get that scratchy sound.

(1:08)
Done. A masterpiece.

Questions, suggestions, or comments? Send them to Cyco00Vision@hotmail.com
Related for Punk Guy tab
Punk Guy chords by Nofx