Song name
# A B C D E F G H I J K L M N O P Q R S T U V W X Y Z

Nofx - Stickin In My Eye tab

#

Date: Tue, 13 Aug 1996 12:20:17 -0500
From: William Meissner 
Subject: NoFX-Stickin' in my Eye


*************************NoFX-Sticking in My Eye************************


Tabbed by Nate Meissner for the group (##Neoprene##) with Noah Palm and
Ben Lee
Probably one of the best punk bands, I figured I'd do a NoFX song.
This is my first tab, some of the things are an octave too high but it
should be OK.

Tune guitar 1/2 step down, it will sound like crap if you don't

I didn't put the rythyms, so just figure them out

intro (clean, slow)
------------------------------------------------------------------------
------------------------------------------------------------------------
-12--12--12--12--12--11--11--11--11-12--12--12--12--12--9--9--9--8------
------------------------------------------------------------------------
-10--10--10--10--10---9---9---9---9--10--10--10--10--10-7--7--7--6------
------------------------------------------------------------------------

repeat as much as it goes

then the kick ass part (fast!)

Guitar 1

------------------------------------------------------------------------
------------------------------------------------------------------------
--9-9--11--12--11-------------------------------------------------------
------------------------------------------------------------------------
--7-7--9---10---9-------------------------------------------------------
------------------------------------------------------------------------
repeat a lot

Guitar 2-hold these notes

------------------------------------------------------------------------
------------------------------------------------------------------------
--9-----7----5----4-----------------------------------------------------
--9-----7----5----4-----------------------------------------------------
--7-----5----3----2-----------------------------------------------------
-----------------------------------------------------------------------

"when I'm outta the ground and I see what I............" (don't laugh I
can't understand him)  Hold these notes.

------------------------------------------------------------------------
------------------------------------------------------------------------
--9-----7----5----4-----------------------------------------------------
--9-----7----5----4-----------------------------------------------------
--7-----5----3----2-----------------------------------------------------
-----------------------------------------------------------------------

chorus
          ?
------------------------------------------------------------------------
------------------------------------------------------------------------
------------------------------------------------------------------------
------2---5---------------------------------------7----9----------------
------2---5----(hold)-----------------------------7----9----------------
------0---3---------------------------------------5----7----------------
"and I...........there's something stickin in my eye"  (repeat)

then the fun part (this isn't exact)

------------------------------------------------------------------------
------------------------------------------------------------------------
---9-X--12-12-12-12----14/----7--8--------------------------------------
-----X----------------------------------repeat a few times--------------
---7-X--10-10-10-10----12/----5--6--------------------------------------
------------------------------------------------------------------------

palm muting part

------------------------------------------------------------------------
------------------------------------------------------------------------
------------------------------------------------------------------------
--X-X-X-X-9-X-X-X-X-9---------------------------------------------------
--X-X-X-X-7-X-X-X-X-9-----repeat a few times----------------------------
--X-X-X-X-7-X-X-X-X-7---------------------------------------------------

at the end "there's somethin' stickin in, there's somethin' stickin in"

------------------------------------------------------------------------
------------------------------------------------------------------------
---9--------9-----------------------------------------------------------
---9--------9-----------------hold these notes and repeat
---7--------7-----------------------------------------------------------
-----------------------------------------------------------------------

The rest you know. Have fun with it.  Remember: a spoonful of medicine 
helps the sugar go down.  --Nate
Tap to rate this tab
 
# A B C D E F G H I J K L M N O P Q R S T U V W X Y Z